Sound will begin in 5 seconds

Tab Archive #2

01234567891011121314151617181920212223
E
B
G
D
A
E
B
0 1 2 3 4 5 6 7 8 9 10 11 12 13 14 15 16 17 18 19 20 21 22 23
Song Science #1: How Pros Use 6 Chords to Write Hit Songs
(/) Slide Up  (\) Slide Down  (h) Hammer On  (p) Pull Off  (b) Bend (r) Release (v) Vibrato

Stave 1:

E|--11--11--11--11--11h12p11----------------------------------------------------
B|----------------------------13--12--10--12--12b13--12--10---------------------
G|-----------------------------------------------------------11--12--11--9--9v--
D|------------------------------------------------------------------------------
A|------------------------------------------------------------------------------
E|------------------------------------------------------------------------------

Stave 2:

E|--12/15--12/15--12/15--14--11b12------------------------------------------------
B|----------------------------------13--12--10--13--12--10------------------------
G|----------------------------------------------------------11--12--11v--11\5--4--
D|--------------------------------------------------------------------------------
A|--------------------------------------------------------------------------------
E|--------------------------------------------------------------------------------

Stave 3:

E|----------------------------------------
B|----------------------------------------
G|-----4-----4--4/5--4--2-----2--4--------
D|--2-----2----------------5--------4--2--
A|----------------------------------------
E|----------------------------------------

Stave 4:

E|-----------------------------------------
B|-----------------------------------------
G|-----4-----4--4/5--4--5/7--5--7--7/9--7--
D|--2-----2--------------------------------
A|-----------------------------------------
E|-----------------------------------------

Stave 5:

E|------------------------------------
B|------------------------------------
G|-----4-----4--4/5--4--5/7--5--4--5--
D|--2-----2---------------------------
A|------------------------------------
E|------------------------------------

Stave 6:

E|--------------------------------------------------
B|--------------------------------------------------
G|-----4-----4--4/5--4--2-----2--------2------------
D|--2-----2----------------5-----5--4-----5--4------
A|--------------------------------------------------
E|--------------------------------------------------

http://www.guitartabcreator.com
Guitar Tab Creator is intended to store guitar tab created through the tool. It currently does not support in-line text editing. Any text you place in here will be lost. If you need to comment on your tab, please use the "Tab Notes" section located below.