Sound will begin in 5 seconds

Defiant

Chords
01234567891011121314151617181920212223
E
B
G
D
A
E
B
0 1 2 3 4 5 6 7 8 9 10 11 12 13 14 15 16 17 18 19 20 21 22 23
Song Science #1: How Pros Use 6 Chords to Write Hit Songs
(/) Slide Up  (\) Slide Down  (h) Hammer On  (p) Pull Off  (b) Bend (r) Release (v) Vibrato

Stave 1:

E|-------------------------------------------------------------------------------------------------------
B|-------------------------------------------------------------------------------------------------------
G|--------4/9--7-------------------------------------------------------------9/11--------5\4----------8--
D|-----5----------9------------4--7/10--9----------------------12\9-------------------2----------7/9-----
A|--7----------------10--7--5--------------10--------------10------------10--------3----------6----------
E|---------------------------------------------12--10--12------------11----------------------------------

Stave 2:

E|-----------------------------------------------------
B|-----------------------------------------------------
G|-----7--------------------------------------------8--
D|--5--5--9--5--8---------10--9-----------12--7--9--9--
A|--7--7--7--6--6--7--10--12--10--10--14--10--6--6--6--
E|-----------------8--8-----------12--12--12-----------

Stave 3:

E|--_----------------------------------
B|--_----------------------------------
G|--_----------------------5--4--2--0--
D|--9---9---9---9---12--9---7--5--4--2--
A|--10--10--9---9---9---9---7--7--5--2--
E|--10--10--10--10--10--10-----------0--

Stave 4:

E|-----------------------------------------------------------------------------------------------------
B|-----------------------------------------------------------------------------------------------------
G|-------------9---7---4--------11-------------9---7---4-----------------------------------5--4--2--0--
D|--5--7---9---10--9---5--5--4--12--5--7---9---10--9---5--5--5--2--7---9---9---9---12--9---7--5--4--2--
A|--7--9---10--10--10--5--7--5--12--7--9---10--10--10--5--7--6--3--9---10--10--9---9---9---7--7--5--2--
E|--7--10--10-------------7--5------7--10--10-------------7--7--3--10--10--10--10--10--10-----------0--

http://www.guitartabcreator.com
Guitar Tab Creator is intended to store guitar tab created through the tool. It currently does not support in-line text editing. Any text you place in here will be lost. If you need to comment on your tab, please use the "Tab Notes" section located below.