Sound will begin in 5 seconds

Primal Solo - Kyle Dubé

01234567891011121314151617181920212223
E
B
G
D
A
E
B
0 1 2 3 4 5 6 7 8 9 10 11 12 13 14 15 16 17 18 19 20 21 22 23
Song Science #1: How Pros Use 6 Chords to Write Hit Songs
(/) Slide Up  (\) Slide Down  (h) Hammer On  (p) Pull Off  (b) Bend (r) Release (v) Vibrato

Stave 1:

E|----------------------12-----------12--15-----------19--18--17--18--17-----15--17b17--15------
B|--12--11--10------10----------------------------------------------------------------------17--
G|--------------12------------------------------------------------------------------------------
D|----------------------------------------------------------------------------------------------
A|----------------------------------------------------------------------------------------------
E|----------------------------------------------------------------------------------------------

Stave 2:

E|--------------------------------------------------------------
B|--------------------------------------------------------------
G|--------9--7-----7--------------------------------------------
D|--------------9-----9--8--7--5-----5--------------------------
A|--------------------------------7-----7--6--5-----------------
E|-----------------------------------------------7--6--5--0--3--

Stave 3:

E|--------------------------------------------------------------------------------10--12--10--12--10--
B|-----------------------------------------------------------------8--10--11--12----------------------
G|-----------------------------------------------------7--9-------------------------------------------
D|-----------------------5--7--5-----5--7--5--7--8--9-------------------------------------------------
A|-----------------5--7-----------7-------------------------------------------------------------------
E|--------5--6--7-------------------------------------------------------------------------------------

Stave 4:

E|-----------------------------------------------------------------------------------------------------
B|-----------------------------------------------------------------------------------------------------
G|-----------------------------------------------------------------------------------------------------
D|----------------------17--19--17-----------------------------------------17--19--17------17--19--17--
A|--------------17--19--------------19--17-------------------------17--19--------------19--------------
E|--17--18--19------------------------------19--18-----17--18--19--------------------------------------

Stave 5:

E|---------------------------------22--23--
B|----------------------22-----23----------
G|--------------19--21---------------------
D|--19--20--21-----------------------------
A|-----------------------------------------
E|-----------------------------------------

http://www.guitartabcreator.com
Guitar Tab Creator is intended to store guitar tab created through the tool. It currently does not support in-line text editing. Any text you place in here will be lost. If you need to comment on your tab, please use the "Tab Notes" section located below.