Sound will begin in 5 seconds

Narfi - main solo

01234567891011121314151617181920212223
E
B
G
D
A
E
B
0 1 2 3 4 5 6 7 8 9 10 11 12 13 14 15 16 17 18 19 20 21 22 23
Song Science #1: How Pros Use 6 Chords to Write Hit Songs
(/) Slide Up  (\) Slide Down  (h) Hammer On  (p) Pull Off  (b) Bend (r) Release (v) Vibrato

Stave 1:

E|------------------------9--12--9---------------------10--12--13--17--15--13--------------
B|--------------------10------------10-------------10--------------------------17--15--13--
G|--------------6--9--------------------9------10------------------------------------------
D|-----------7-----------------------------12----------------------------------------------
A|--------7--------------------------------------------------------------------------------
E|--5--9-----------------------------------------------------------------------------------

Stave 2:

E|--------------13--15--17--15--13--------------------------------------13------------------
B|----------13----------------------17--15--14--------------14--15--17------17--15--14------
G|------14--------------------------------------16--14--16------------------------------16--
D|--15--------------------------------------------------------------------------------------
A|------------------------------------------------------------------------------------------
E|------------------------------------------------------------------------------------------

http://www.guitartabcreator.com
Guitar Tab Creator is intended to store guitar tab created through the tool. It currently does not support in-line text editing. Any text you place in here will be lost. If you need to comment on your tab, please use the "Tab Notes" section located below.