Sound will begin in 5 seconds

2

01234567891011121314151617181920212223
E
B
G
D
A
E
B
0 1 2 3 4 5 6 7 8 9 10 11 12 13 14 15 16 17 18 19 20 21 22 23
Song Science #1: How Pros Use 6 Chords to Write Hit Songs
(/) Slide Up  (\) Slide Down  (h) Hammer On  (p) Pull Off  (b) Bend (r) Release (v) Vibrato

Stave 1:

E|--9--3--|--3--|--9--3--6--6--12--|--
B|--------|-----|------------------|--
G|--------|-----|------------------|--
D|--------|-----|------------------|--
A|--9--7--|-----|--9--7--5--7--4---|--
D|--7--5--|-----|--7--5--3--5--2---|--

Stave 2:

E|--------3--------3--------3--3--3--|--
B|-----------------------------------|--
G|-----------------------------------|--
D|--2--2-----2--2-----2--2-----4--3--|--
A|--2--2--2--2--2--2--2--2--2--4--3--|--
D|--0--0--0--0--0--0--0--0--0--------|--

Stave 3:

E|--------3--------3--------9--
B|-----------------------------
G|-----------------------------
D|--2--2-----2--2-----2--2-----
A|--2--2--2--2--2--2--2--2--2--
D|--0--0--0--0--0--0--0--0--0--

Stave 4:

E|----------3--------3--------9--
B|-------------------------------
G|-------------------------------
D|----3--3-----3--3-----3--3-----
A|----3--3--3--3--3--3--3--3--3--
D|----1--1--1--1--1--1--1--1--1--

Stave 5:

E|----9--9--
B|----------
G|----------
D|----5--4--
A|----5--4--
D|----------

Stave 6:

E|-------
B|-------
G|-------
D|----2--
A|----2--
D|----2--

http://www.guitartabcreator.com
Guitar Tab Creator is intended to store guitar tab created through the tool. It currently does not support in-line text editing. Any text you place in here will be lost. If you need to comment on your tab, please use the "Tab Notes" section located below.