Sound will begin in 5 seconds

Brothers In Arms - Dire Straits

01234567891011121314151617181920212223
E
B
G
D
A
E
B
0 1 2 3 4 5 6 7 8 9 10 11 12 13 14 15 16 17 18 19 20 21 22 23
Song Science #1: How Pros Use 6 Chords to Write Hit Songs
(/) Slide Up  (\) Slide Down  (h) Hammer On  (p) Pull Off  (b) Bend (r) Release (v) Vibrato

Stave 1:

E|---------------------------------------------------------------
B|---------------------------------------------------------4-----
G|------------------------------------------------------4-----6--
D|-------6--8p6--6--6h8----------8--9--11--9--8--6/4/6-----------
A|--4/6------------------7---------------------------------------
E|--------------------------9------------------------------------

Stave 2:

E|-------------
B|-------------
G|--6b8--4--6--
D|-------------
A|-------------
E|-------------

Stave 3:

E|--------------
B|--------------
G|--8p6h8--6h8--
D|--------------
A|--------------
E|--------------

Stave 4:

E|--------
B|--------
G|--8p6v--
D|--------
A|--------
E|--------

Stave 5:

E|------------
B|-----5------
G|--4-----6v--
D|------------
A|------------
E|------------

Stave 6:

E|----------------------------------------------------------------
B|----------------------------------------------------------4-----
G|--------------------------------6v-----6---------------4-----6--
D|--9p8h9/11--9--8--6--4--6--6--------8-----9--8--6/4/6-----------
A|----------------------------------------------------------------
E|----------------------------------------------------------------

Stave 7:

E|----------------
B|----------------
G|--8--6--8--6h8--
D|----------------
A|----------------
E|----------------

Stave 8:

E|-----------------
B|-----------------
G|--8v--/9v--/11v--
D|-----------------
A|-----------------
E|-----------------

Stave 9:

E|-----------------
B|--7p6------------
G|-------8/10------
D|-------------10--
A|-----------------
E|-----------------

Stave 10:

E|----------------
B|--9p7-----------
G|-------9/11--8--
D|----------------
A|----------------
E|----------------

Stave 11:

E|--------------
B|--------------
G|--4v--6v--4v--
D|--------------
A|--------------
E|--------------

Stave 12:

E|---------------
B|-----5v--4-----
G|--4---------6--
D|---------------
A|---------------
E|---------------

Stave 13:

E|----------------------------------------------------------------
B|-----7b9--7-----------------------------------------------4-----
G|--8----------8------------------8h9/11--9--8--6--4--6--4-----6--
D|----------------9--8--6--6--------------------------------------
A|----------------------------------------------------------------
E|----------------------------------------------------------------

Stave 14:

E|-------------------
B|-------------------
G|-------------8--6--
D|--0/6--8--9--------
A|-------------------
E|-------------------

Stave 15:

E|-------------------
B|-------------------
G|-------------------
D|--8--9--8--6/9/11--
A|-------------------
E|-------------------

Stave 16:

E|-------------------
B|--5p4--------4-----
G|-------6--4-----6--
D|-------------------
A|-------------------
E|-------------------

Stave 17:

E|-----------
B|-----------
G|-----------
D|-----------
A|-----------
E|-----------

http://www.guitartabcreator.com
Guitar Tab Creator is intended to store guitar tab created through the tool. It currently does not support in-line text editing. Any text you place in here will be lost. If you need to comment on your tab, please use the "Tab Notes" section located below.