Sound will begin in 5 seconds

Canção do Apocalipse

01234567891011121314151617181920212223
E
B
G
D
A
E
B
0 1 2 3 4 5 6 7 8 9 10 11 12 13 14 15 16 17 18 19 20 21 22 23
Song Science #1: How Pros Use 6 Chords to Write Hit Songs
(/) Slide Up  (\) Slide Down  (h) Hammer On  (p) Pull Off  (b) Bend (r) Release (v) Vibrato

Stave 1:

E|--------------------------------------------------------------------------------
B|--------------------------------------------------------------------------------
G|--------12--11---------12--11------12--11-------------------------------12--14--
D|--9/12----------12/14----------12----------12--12/14--12--10--9/10--12----------
A|--------------------------------------------------------------------------------
E|--------------------------------------------------------------------------------

Stave 2:

E|----------------------------------------------------------------------------------------------
B|-----------------------------------13--12--15--13------13--12--15b17--15----------------------
G|--12--11-----------------------12------------------12---------------------12--11--12--11--14--
D|----------12/14--14/16--14\12-----------------------------------------------------------------
A|----------------------------------------------------------------------------------------------
E|----------------------------------------------------------------------------------------------

Stave 3:

E|-------------------------------------------------------------------5-----5--7--5--7--8--5--7--8--8--7--5--------------
B|----------------------------------------------------------5--7--8-----8-----------------------------------8--5--7--8--
G|--2--4--5--2--4--5--5--4--2----------------7--5-----5--7--------------------------------------------------------------
D|-----------------------------5--2--4--5----------7--------------------------------------------------------------------
A|----------------------------------------------------------------------------------------------------------------------
E|----------------------------------------------------------------------------------------------------------------------

Stave 4:

E|--------------------------------------------------------------------------------
B|--------------------------------------------------------------------------------
G|--2--4--5--2--4--5--5--4--2--------------2--4--5--2--4--5--5--4--2--------------
D|-----------------------------5--2--4--5-----------------------------5--2--4--5--
A|--------------------------------------------------------------------------------
E|--------------------------------------------------------------------------------

http://www.guitartabcreator.com
Guitar Tab Creator is intended to store guitar tab created through the tool. It currently does not support in-line text editing. Any text you place in here will be lost. If you need to comment on your tab, please use the "Tab Notes" section located below.