Sound will begin in 5 seconds

Eu te agradeço final

01234567891011121314151617181920212223
E
B
G
D
A
E
B
0 1 2 3 4 5 6 7 8 9 10 11 12 13 14 15 16 17 18 19 20 21 22 23
Song Science #1: How Pros Use 6 Chords to Write Hit Songs
(/) Slide Up  (\) Slide Down  (h) Hammer On  (p) Pull Off  (b) Bend (r) Release (v) Vibrato

Stave 1:

E|--12------12--12/14------14--14/16------16--17--
B|------12-------------12-------------14----------
G|------------------------------------------------
D|------------------------------------------------
A|------------------------------------------------
E|------------------------------------------------

Stave 2:

E|--12------12--12/14------14/16------19--17--17--16--17--
B|------12-------------12---------14----------------------
G|--------------------------------------------------------
D|--------------------------------------------------------
A|--------------------------------------------------------
E|--------------------------------------------------------

Stave 3:

E|---------------------------------------------------------------12-------------19------17--17\12--
B|--17--17h19--17h19--17--17--21--17--19--17--17\13--12--13--15------15/17--17------17-------------
G|-------------------------------------------------------------------------------------------------
D|-------------------------------------------------------------------------------------------------
A|-------------------------------------------------------------------------------------------------
E|-------------------------------------------------------------------------------------------------

Stave 4:

E|--9h12--9h12------------------------------------------
B|--------------12--9-----------------------------------
G|---------------------11--9------9--11b14--9-----------
D|----------------------------11---------------11v--11--
A|------------------------------------------------------
E|------------------------------------------------------

http://www.guitartabcreator.com
Guitar Tab Creator is intended to store guitar tab created through the tool. It currently does not support in-line text editing. Any text you place in here will be lost. If you need to comment on your tab, please use the "Tab Notes" section located below.