Sound will begin in 5 seconds

Blues in Em

01234567891011121314151617181920212223
E
B
G
D
A
E
B
0 1 2 3 4 5 6 7 8 9 10 11 12 13 14 15 16 17 18 19 20 21 22 23
Song Science #1: How Pros Use 6 Chords to Write Hit Songs
(/) Slide Up  (\) Slide Down  (h) Hammer On  (p) Pull Off  (b) Bend (r) Release (v) Vibrato

Stave 1:

E|----------------------------------------------------------------
B|----------------------------------------------------------------
G|--7--9--7--9--7--7--7--7--5--4--5--4--5--5--5--5--5--4--2--1--2\
D|----------------------------------------------------------------
A|----------------------------------------------------------------
E|----------------------------------------------------------------

Stave 2:

E|-----------------------------------------------------------------
B|-----------------------------------------------------------------
G|--7--9--7--9--7--7--7--7--5--4--5--4--5--5--5--5--5--4--2--1--2--
D|-----------------------------------------------------------------
A|-----------------------------------------------------------------
E|-----------------------------------------------------------------

Stave 3:

E|-----------------------------------------------------------------------------
B|--------------------------------------------------------------7-----------7--
G|--7--9--7--9--------------------------------------5--7--5--7-----5--7--5-----
D|--------------7--9--7--9--7--9--9--7--9--7--5--7-----------------------------
A|-----------------------------------------------------------------------------
E|-----------------------------------------------------------------------------

Stave 4:

E|--------------------------------------------------------------------5--
B|--5--7--------5-----------------------5--7--------------------5--7-----
G|--------5--7-----5--7-----------5--7--------------------5--7-----------
D|-----------------------5--7--7--------------------5--7-----------------
A|--------------------------------------------5--7-----------------------
E|-----------------------------------------------------------------------

Stave 5:

E|--------------------------------------------------------------------------------------------------
B|-----------------------------------------------------------------5--6--5--3-----------------------
G|--7--9--9--7--9--7--5--7--7--5--3--5-----------------------3--5--------------5--------------------
D|--------------------------------------3--5-----------3--5-----------------------3--5--------------
A|--------------------------------------------3--5--5-----------------------------------3--5--------
E|--------------------------------------------------------------------------------------------3--5--

Stave 6:

E|--9-------------------------------9--11---------------------------------------------------------------------------------------------
B|-----------------------------------------9--11---------8--9-------------------------------------------------------------------------
G|------------------------------------------------9--11--------9--11------------------------------------------------------------------
D|--------------------------------------------------------------------9--11----------------------------------9--11--7--9--9--9--9--9--
A|------------------------------11-------------------------------------------9--11--------------------11--9---------------------------
E|-----9--7--11--10--12--11--9------------------------------------------------------9--11--12--11--9----------------------------------

Stave 7:

E|--7--9--------7------------------------------------------------------------------
B|-----------------9---------------------------------------------------------------
G|--------7--9---------------------------------------------------------------------
D|--------------------7--9---------------------------------------------------------
A|--------------------------7------------9------------9------------9------------9--
E|-----------------------------7--10--9-----7--10--9-----7--10--9-----7--10--9-----

Stave 8:

E|--1--3--4-----------5--7--8-----------10--12--13--------------------------------------------------------------------------
B|-----------1--3--4-----------5--7--8--------------13--15--16--------------------------------------------------------------
G|--------------------------------------------------------------14--16--17--------------------------------------------------
D|--------------------------------------------------------------------------15--17------------------------------------------
A|----------------------------------------------------------------------------------15--17----------------------------------
E|------------------------------------------------------------------------------------------15--17--17--17--17--17--17--17--

Stave 9:

E|-----------------------------------------------------------------------------------------------------------------------5--
B|--5-----7-----5-----7-----5--7-----7-----12------14------12------14----------14------12-----7-----5-----3--3-----5--------
G|--------------------------------------------------------------------------------------------------------------------------
D|-----7-----9-----7-----9--------9-----9------14------16------14------16--16------14------9-----7-----5--------5-----7-----
A|--------------------------------------------------------------------------------------------------------------------------
E|--------------------------------------------------------------------------------------------------------------------------

http://www.guitartabcreator.com
Guitar Tab Creator is intended to store guitar tab created through the tool. It currently does not support in-line text editing. Any text you place in here will be lost. If you need to comment on your tab, please use the "Tab Notes" section located below.