Sound will begin in 5 seconds

Burn It Down - P.O.D.

01234567891011121314151617181920212223
E
B
G
D
A
E
B
0 1 2 3 4 5 6 7 8 9 10 11 12 13 14 15 16 17 18 19 20 21 22 23
Song Science #1: How Pros Use 6 Chords to Write Hit Songs
(/) Slide Up  (\) Slide Down  (h) Hammer On  (p) Pull Off  (b) Bend (r) Release (v) Vibrato

Stave 1:

E|------------------------------------------------------------------------------
B|------------------------------------------------------------------------------
G|------------------------------------------------------------------------------
D|------------------------------------------------------------------------------
A|-------------------------0-------------------------------------0--------------
E|--0----0--0--0--2--3--5-------0--1b2r1--0----0--0--0--2--3--5-------0--1b2r1--

Stave 2:

E|------------------------------------------------------------------------------
B|------------------------------------------------------------------------------
G|------------------------------------------------------------------------------
D|------------------------------------------------------------------------------
A|-------------------------0-------------------------------------0--------------
E|--0----0--0--0--2--3--5-------0--1b2r1--0----0--0--0--2--3--5-------0--1b2r1--

Stave 3:

E|------------------------------------
B|------------------------------------
G|------------------------------------
D|--8----0----10----0----2----1----0--
A|--8----0----10----0----2----1----0--
E|--8----0----10----0----2----1----0--

Stave 4:

E|----------------------------------------------
B|----------------------------------------------
G|----------------------------------------------
D|--0----10--10--0--0--0--10--10----0--3--------
A|--0----10--10--0--0--0--10--10----0--3--------
E|--0----10--10--0--0--0--10--10----0--3--------

Stave 5:

E|----------------------------------------------
B|----------------------------------------------
G|----------------------------------------------
D|--0----10--10--0--0--0--10--10----0--3--2--0--
A|--0----10--10--0--0--0--10--10----0--3--2--0--
E|--0----10--10--0--0--0--10--10----0--3--2--0--

Stave 6:

E|------------------------------------------
B|------------------------------------------
G|--------------------9----10--9------------
D|--0h10--------12------------------12------
A|------------------------------------------
E|------------------------------------------

Stave 7:

E|------------------------------0------0---------------
B|------------------10--12--13--10-----10--10--10------
G|--10------10--12------------------0------------------
D|-----------------------------------------------------
A|-----------------------------------------------------
E|-----------------------------------------------------

http://www.guitartabcreator.com
Guitar Tab Creator is intended to store guitar tab created through the tool. It currently does not support in-line text editing. Any text you place in here will be lost. If you need to comment on your tab, please use the "Tab Notes" section located below.