Sound will begin in 5 seconds

Mr. Natural

01234567891011121314151617181920212223
E
B
G
D
A
E
B
0 1 2 3 4 5 6 7 8 9 10 11 12 13 14 15 16 17 18 19 20 21 22 23
Song Science #1: How Pros Use 6 Chords to Write Hit Songs
(/) Slide Up  (\) Slide Down  (h) Hammer On  (p) Pull Off  (b) Bend (r) Release (v) Vibrato

Stave 1:

E|---------------|----------------|---------------|----------------|--------------|--
B|---------------|----------------|---------------|----------------|--------------|--
G|--0------0-----|----------------|--0------0-----|----------------|--------------|--
D|------------0--|--4------4------|------------0--|--4------4------|--0--0--0--0--|--
A|---------------|----------------|---------------|----------------|--------------|--
E|---------------|----------------|---------------|----------------|--------------|--

Stave 2:

E|--------------------|--------------|---------------|----------------|----------------|--
B|--------------------|--------------|---------------|----------------|----------------|--
G|-----------------2--|--------------|---------------|--0-------------|--0-------------|--
D|--0--0--3--0--3-----|--0--0--0--0--|--0--0--0------|---------0------|---------4------|--
A|--------------------|--------------|---------------|----------------|----------------|--
E|--------------------|--------------|---------------|----------------|----------------|--

Stave 3:

E|----------------|----------------|----------------|----------------|----------------|--
B|----------------|----------------|----------------|----------------|----------------|--
G|--0-------------|--0-------------|--0-------------|--0-------------|--0-------------|--
D|---------0------|---------4------|---------0------|---------4------|---------0------|--
A|----------------|----------------|----------------|----------------|----------------|--
E|----------------|----------------|----------------|----------------|----------------|--

Stave 4:

E|-----------|----------------|------------------|----------------|----------------|--
B|-----------|----------------|------------------|----------------|----------------|--
G|--0-----0--|--0-------------|--0---------------|--0-------------|--0-------------|--
D|-----0-----|---------0------|---------4--------|---------0------|---------4------|--
A|-----------|----------------|------------------|----------------|----------------|--
E|-----------|----------------|------------------|----------------|----------------|--

Stave 5:

E|----------------|----------------|----------------|-----------------|--------------|--
B|----------------|----------------|----------------|-----------------|--------------|--
G|--0-------------|--0-------------|--0-------------|--0-----0--------|--------------|--
D|---------0------|---------4------|---------0------|-----0-----0--2--|--3-----------|--
A|----------------|----------------|----------------|-----------------|---------3----|--
E|----------------|----------------|----------------|-----------------|--------------|--

Stave 6:

E|----------------|--------------|----------------|----------------|------------------|-----
B|----------------|--------------|----------------|----------------|------------------|-----
G|----------------|--0-----0-----|--0-------------|--0-------------|--0---------------|-----
D|--4------4------|-----0-----4--|---------0------|---------4------|-----------0------|-----
A|----------------|--------------|----------------|----------------|------------------|-----
E|----------------|--------------|----------------|----------------|------------------|-----

Stave 7:

E|-------------------|----------------|------------|----------------|------------------|--
B|-------------------|----------------|------------|----------------|------------------|--
G|--0-----0----------|----------------|------------|--0-------------|--0---------------|--
D|-----0-------------|--4-------------|--3----3----|---------0------|-----------3------|--
A|-------------------|---------3------|------------|----------------|------------------|--
E|-------------------|----------------|------------|----------------|------------------|--

Stave 8:

E|----------------|--------------|------------|---------------|-----------|-----
B|----------------|--------------|------------|---------------|-----------|-----
G|--0-------------|--0-----------|--0---------|--0-----0------|--0--0--0--|-----
D|---------0------|-------3------|-------0----|-----0---------|-----------|-----
A|----------------|--------------|------------|---------------|-----------|-----
E|----------------|--------------|------------|---------------|-----------|-----

Stave 9:

E|-----------|-----------|-------------|-----------|-----------|-----------|--
B|-----------|-----------|-------------|-----------|-----------|-----------|--
G|--0--------|--0--0--0--|-------------|--0--0--0--|--0--------|--0--0--0--|--
D|-----4--4--|-----------|----------0--|-----------|-----4--4--|-----------|--
A|-----------|-----------|-------------|-----------|-----------|-----------|--
E|-----------|-----------|-------------|-----------|-----------|-----------|--

Stave 10:

E|----------------|--1--0--1--3--5------|------------|----------------|--------------|--
B|----------------|---------------------|------------|----------------|--------------|--
G|---------0------|---------------------|------------|--0-------------|--0-----------|--
D|------4---------|---------------------|------------|---------0------|---------4----|--
A|----------------|---------------------|------------|----------------|--------------|--
E|----------------|---------------------|------------|----------------|--------------|--

Stave 11:

E|--------------|--------------|-------------|-----3--3-----|--------|-----------
B|--------------|--------------|-------------|--3--------3--|--------|-----------
G|--0-----------|--0-----------|--0-----0----|--------------|--------|-----------
D|---------0----|---------0----|-----0-------|--------------|--------|-----------
A|--------------|--------------|-------------|--------------|--------|-----------
E|--------------|--------------|-------------|--------------|--------|-----------

Stave 12:

E|-----3--3-----------|---------------|--
B|--3--------3--3--1--|--0--3--3------|--
G|--------------------|---------------|--
D|--------------------|---------------|--
A|--------------------|---------------|--
E|--------------------|---------------|--

http://www.guitartabcreator.com
Guitar Tab Creator is intended to store guitar tab created through the tool. It currently does not support in-line text editing. Any text you place in here will be lost. If you need to comment on your tab, please use the "Tab Notes" section located below.