Sound will begin in 5 seconds

darft 2- arts award

01234567891011121314151617181920212223
E
B
G
D
A
E
B
0 1 2 3 4 5 6 7 8 9 10 11 12 13 14 15 16 17 18 19 20 21 22 23
Song Science #1: How Pros Use 6 Chords to Write Hit Songs
(/) Slide Up  (\) Slide Down  (h) Hammer On  (p) Pull Off  (b) Bend (r) Release (v) Vibrato

Stave 1:

E|--------------------------------------------------------------------
B|--------------------------------------------------------------------
G|--6-----------6----6-----------6----6-----------6----6-----------6--
D|-----7----------------7----------------7----------------7-----------
A|--------7----------------7----------------7----------------7--------
E|--5--------5-------5--------5-------5--------5-------5--------5-----

Stave 2:

E|--7--------7-------7--------7-------7--------7-------7--------7-----
B|-----5----------------5----------------5----------------5-----------
G|--------6----------------6----------------6----------------6--------
D|--7-----------7----7-----------7----7-----------7----7-----------7--
A|--------------------------------------------------------------------
E|--------------------------------------------------------------------

Stave 3:

E|-----------------------------------------------------------------------------------------------
B|-----------------------------------------------------------------------------------------------
G|--6-----------6----6-----------6------4-----------4----2-----------2----2----2--2--4--4--4--6--
D|-----7----------------7------------------5----------------3-------------3----3--3--5--5--5--7--
A|--------7----------------7------------------5----------------3----------3----3--3--5--5--5--7--
E|--5--------5-------5--------5---------3--------3-------1--------1-------1----1--1--3--3--3--5--

Stave 4:

E|--7--7--7--7--------------7--7--7--7--5--5--3--3--
B|--5--5--5--5--------------5--5--5--5--3--3--1--1--
G|--6--6--6--6--6--6--6--6--6--6--6--6--4--4--2--2--
D|--7--7--7--7--7--7--7--7--7--7--7--7--5--5--3--3--
A|--------------7--7--7--7--------------------------
E|--------------5--5--5--5--------------------------

Stave 5:

E|--7--7--7--7--------------7--7--7--7--5--5--3--3--
B|--5--5--5--5--------------5--5--5--5--3--3--1--1--
G|--6--6--6--6--6--6--6--6--6--6--6--6--4--4--2--2--
D|--7--7--7--7--7--7--7--7--7--7--7--7--5--5--3--3--
A|--------------7--7--7--7--------------------------
E|--------------5--5--5--5--------------------------

Stave 6:

E|--7--7--7--7--------------7--7--7--7--5--5--3--3--
B|--5--5--5--5--------------5--5--5--5--3--3--1--1--
G|--6--6--6--6--6--6--6--6--6--6--6--6--4--4--2--2--
D|--7--7--7--7--7--7--7--7--7--7--7--7--5--5--3--3--
A|--------------7--7--7--7--------------------------
E|--------------5--5--5--5--------------------------

Stave 7:

E|--1--1-----------------------------3--
B|--1--1--1--1--------1--1--3--3--3--1--
G|--2--2--2--2--1--1--2--2-----------2--
D|--3--3--2--2--2--2--2--2--2--2--2--3--
A|--------------2--2--------3--3--3-----
E|--------------------------------------

Stave 8:

E|--3-----------3--3-----------3--5-----------5--7-----------7--
B|-----1--------------1--------------3--------------5-----------
G|--------2--------------2--------------4--------------6--------
D|--3--------3-----3--------3-----5--------5-----7--------7-----
A|--------------------------------------------------------------
E|--------------------------------------------------------------

Stave 9:

E|--7--7--7--7--------------7--7--7--7--5--5--3--3--
B|--5--5--5--5--------------5--5--5--5--3--3--1--1--
G|--6--6--6--6--6--6--6--6--6--6--6--6--4--4--2--2--
D|--7--7--7--7--7--7--7--7--7--7--7--7--5--5--3--3--
A|--------------7--7--7--7--------------------------
E|--------------5--5--5--5--------------------------

Stave 10:

E|--7--7--7--7--------------7--7--7--7--5--5--3--3--
B|--5--5--5--5--------------5--5--5--5--3--3--1--1--
G|--6--6--6--6--6--6--6--6--6--6--6--6--4--4--2--2--
D|--7--7--7--7--7--7--7--7--7--7--7--7--5--5--3--3--
A|--------------7--7--7--7--------------------------
E|--------------5--5--5--5--------------------------

Stave 11:

E|--7--7--7--7--------------7--7--7--7--5--5--3--3--
B|--5--5--5--5--------------5--5--5--5--3--3--1--1--
G|--6--6--6--6--6--6--6--6--6--6--6--6--4--4--2--2--
D|--7--7--7--7--7--7--7--7--7--7--7--7--5--5--3--3--
A|--------------7--7--7--7--------------------------
E|--------------5--5--5--5--------------------------

Stave 12:

E|--1--1-----------------------------3--
B|--1--1--1--1--------1--1--3--3--3--1--
G|--2--2--2--2--1--1--2--2-----------2--
D|--3--3--2--2--2--2--2--2--2--2--2--3--
A|--------------2--2--------3--3--3-----
E|--------------------------------------

Stave 13:

E|--7--7--7--7--------------7--7--7--7--5--5--3--3--
B|--5--5--5--5--------------5--5--5--5--3--3--1--1--
G|--6--6--6--6--6--6--6--6--6--6--6--6--4--4--2--2--
D|--7--7--7--7--7--7--7--7--7--7--7--7--5--5--3--3--
A|--------------7--7--7--7--------------------------
E|--------------5--5--5--5--------------------------

Stave 14:

E|--7--7--7--7--------------7--7--7--7--5--5--3--3--
B|--5--5--5--5--------------5--5--5--5--3--3--1--1--
G|--6--6--6--6--6--6--6--6--6--6--6--6--4--4--2--2--
D|--7--7--7--7--7--7--7--7--7--7--7--7--5--5--3--3--
A|--------------7--7--7--7--------------------------
E|--------------5--5--5--5--------------------------

Stave 15:

E|--7--7--7--7--------------7--7--7--7--5--5--3--3--
B|--5--5--5--5--------------5--5--5--5--3--3--1--1--
G|--6--6--6--6--6--6--6--6--6--6--6--6--4--4--2--2--
D|--7--7--7--7--7--7--7--7--7--7--7--7--5--5--3--3--
A|--------------7--7--7--7--------------------------
E|--------------5--5--5--5--------------------------

Stave 16:

E|--------------------------------------------------------------
B|--------------------------------------------------------------
G|--6-----------6--6-----------6--6-----------6--6-----------6--
D|-----7--------------7--------------7--------------7-----------
A|--------7--------------7--------------7--------------7--------
E|--5--------5-----5--------5-----5--------5-----5--------5-----

Stave 17:

E|--7-----------7--7-----------7--7-----------7--7-----------7--
B|-----5--------------5--------------5--------------5-----------
G|--------6--------------6--------------6--------------6--------
D|--7--------7-----7--------7-----7--------7-----7--------7-----
A|--------------------------------------------------------------
E|--------------------------------------------------------------

Stave 18:

E|--------------------------------------------------------------
B|--------------------------------------------------------------
G|--6-----------6--6-----------6--6-----------6--6-----------6--
D|-----7--------------7--------------7--------------7-----------
A|--------7--------------7--------------7--------------7--------
E|--5--------5-----5--------5-----5--------5-----5--------5-----

Stave 19:

E|--7-----------7--7-----------7--7-----------7--7-----------7--
B|-----5--------------5--------------5--------------5-----------
G|--------6--------------6--------------6--------------6--------
D|--7--------7-----7--------7-----7--------7-----7--------7-----
A|--------------------------------------------------------------
E|--------------------------------------------------------------

Stave 20:

E|--7--7--7--7--------------7--7--7--7--5--5--3--3--
B|--5--5--5--5--------------5--5--5--5--3--3--1--1--
G|--6--6--6--6--6--6--6--6--6--6--6--6--4--4--2--2--
D|--7--7--7--7--7--7--7--7--7--7--7--7--5--5--3--3--
A|--------------7--7--7--7--------------------------
E|--------------5--5--5--5--------------------------

Stave 21:

E|--3-----------3--3-----------3--5-----------5--5-----------5--
B|-----1--------------1--------------3--------------3-----------
G|--------2--------------2--------------4--------------4--------
D|--3--------3-----3--------3-----5--------5-----5--------5-----
A|--------------------------------------------------------------
E|--------------------------------------------------------------

Stave 22:

E|--7-----------7--7-----------7--------------------------------
B|-----5--------------5-----------------------------------------
G|--------6--------------6--------6-----------6--6-----------6--
D|--7--------7-----7--------7--------7--------------7-----------
A|--------------------------------------7--------------7--------
E|--------------------------------5--------5-----5--------5-----

http://www.guitartabcreator.com
Guitar Tab Creator is intended to store guitar tab created through the tool. It currently does not support in-line text editing. Any text you place in here will be lost. If you need to comment on your tab, please use the "Tab Notes" section located below.