Sound will begin in 5 seconds

Y.Lullaby

01234567891011121314151617181920212223
E
B
G
D
A
E
B
0 1 2 3 4 5 6 7 8 9 10 11 12 13 14 15 16 17 18 19 20 21 22 23
Song Science #1: How Pros Use 6 Chords to Write Hit Songs
(/) Slide Up  (\) Slide Down  (h) Hammer On  (p) Pull Off  (b) Bend (r) Release (v) Vibrato

Stave 1:

E|----------------------------------------------|--------------------0-------------|--
B|-----------1--0-----------------3-----0-------|-----0--------3-----3--------1----|--
G|--------2-----1--1-----------4-----5----------|--5-----5-----5-----0-----0-------|--
D|-----2--------2-----2-----2--------------7----|--------3--------------2----------|--
A|--0-------------------------------------------|--0-----------------3-------------|--
E|--------------0--------4----------------------|-----------3-----3----------------|--

Stave 2:

E|--5----------------------------------|----------------------------------|--
B|--5--5--8--6-----------6--5----------|----------------------------------|--
G|--6-----7-----7-----7-----5--5-------|--5--7--5-----7-----9-----9-------|--
D|--------7--------7--6-----7-----7----|--------6-----------7-----7-------|--
A|--0-----------------------0----------|--------7-------------------------|--
E|--------------------0----------------|-----------0-----0--8--8--9--9----|--

Stave 3:

E|--5----------------------------------|---------------------------------------|--
B|--5--5--8--6--------6--6--5----------|--------------0-------------1----------|--
G|--6-----7-----7-----7-----5--5-------|--5--7--5-------------------------2----|--
D|-------7--------7--6-----7-----7----|--------6----------------2-----2-------|--
A|-------------------------0----------|-----------7--------0------------------|--
E|--0-----------------7----------------|-----------------0---------------------|--

http://www.guitartabcreator.com
Guitar Tab Creator is intended to store guitar tab created through the tool. It currently does not support in-line text editing. Any text you place in here will be lost. If you need to comment on your tab, please use the "Tab Notes" section located below.