Painting Amongst The Feathers (rhythm guitar)

Chords

01234567891011121314151617181920212223
E
B
G
D
A
E
B
0 1 2 3 4 5 6 7 8 9 10 11 12 13 14 15 16 17 18 19 20 21 22 23
(/) Slide Up  (\) Slide Down  (h) Hammer On  (p) Pull Off  (b) Bend (r) Release (v) Vibrato

Stave 1:

E|--------------|--------------|--------------|--------------|--------------|--------------|--------------|--------------|--
B|--------------|--------------|--------------|--------------|--------------|--------------|--------------|--------------|--
G|--------------|--------------|--------------|--------------|--------------|--------------|--------------|--------------|--
D|--------------|--------------|--------------|--------------|--------------|--------------|--------------|--------------|--
A|--4--4-----4--|--------4-----|--4--4-----4--|--------4-----|--2--2-----2--|--------2-----|--2--2-----2--|--------2-----|--
E|--2--2-----2--|--------2-----|--2--2-----2--|--------2-----|--0--0-----0--|--------0-----|--0--0-----0--|--------0-----|--

Stave 2:

E|--------------|--------------|--------------|--------------|--------------|--------------|--------------|--------------|--
B|--------------|--------------|--------------|--------------|--------------|--------------|--------------|--------------|--
G|--------------|--------------|--------------|--------------|--------------|--------------|--------------|--------------|--
D|--------------|--------------|--------------|--------------|--------------|--------------|--------------|--------------|--
A|--5--5-----5--|--------5-----|--5--5-----5--|--------5-----|--4--4-----4--|--------4-----|--4--4-----4--|--------4-----|--
E|--5--5-----5--|--------5-----|--5--5-----5--|--------5-----|--4--4-----4--|--------2-----|--1--1-----1--|--------1-----|--

Stave 3:

E|--------------|--------------|--------------|--------------|--------------|--------------|--------------|--------------|--
B|--------------|--------------|--------------|--------------|--------------|--------------|--------------|--------------|--
G|--------------|--------------|--------------|--------------|--------------|--------------|--------------|--------------|--
D|--7--------7--|--------------|--9--------9--|--------------|--4--------4--|--------------|--6--------6--|--------------|--
A|--5--------5--|--------------|--7--------7--|--------------|--2--------2--|--------------|--4--------4--|--------------|--
E|--------------|--------------|--------------|--------------|--------------|--------------|--------------|--------------|--

Stave 4:

E|--------------|--------------|--------------|--------------|--------------|--------------|--------------|--------------|--
B|--------------|--------------|--------------|--------------|--------------|--------------|--------------|--------------|--
G|--------------|--------------|--------------|--------------|--------------|--------------|--------------|--------------|--
D|--------------|--------------|--------------|--------------|--------------|--------------|--------------|--------------|--
A|--5--------5--|--------------|--7--------7--|--------------|--2--------2--|--------------|--4--------4--|--------------|--
E|--------------|--------------|--------------|--------------|--------------|--------------|--------------|--------------|--

Stave 5:

E|--------------|--------------|--------------|--------------|--
B|--------------|--------------|--------------|--------------|--
G|--------------|--------------|--------------|--------------|--
D|--7--------7--|--------------|--9--------9--|--------------|--
A|--5--------5--|--------------|--7--------7--|--------------|--
E|--------------|--------------|--------------|--------------|--

Stave 6:

E|--------------------------|--------------------------|--
B|--------------------------|--------------------------|--
G|--------------------------|--------------------------|--
D|--------------------------|--------------------------|--
A|--4--------2-----4--5-----|-----5--5--5--5--5--5--5--|--
E|--2--------2-----2--2-----|-----2--2--2--2--2--2--2--|--

Stave 7:

E|--------------------------|--------------------------|-----------------------|-----------------------|--
B|--------------------------|--------------------------|-----------------------|-----------------------|--
G|--------------------------|--------------------------|-----------------------|-----------------------|--
D|--------------------------|--------------------------|--------------------4--|-----4--4-----4-----4--|--
A|--4--------4-----4--4-----|-----4--4-----4-----4--4--|--2--------2-----2--2--|-----2--2-----2-----2--|--
E|--2--------2-----0--2-----|-----2--2-----2-----2--2--|--0--------0-----0-----|-----------------------|--

Stave 8:

E|--------------------------|--------------------------|-----------------------|--------------------------|--
B|--------------------------|--------------------------|-----------------------|--------------------------|--
G|--------------------------|--------------------------|-----------------------|--------------------------|--
D|--------------------------|--------------------------|--------------------4--|--------------------------|--
A|--4-----------------------|--------------------------|--2--------2--------2--|--------------------------|--
E|--2-----------------------|--------------------------|--0--------0-----------|--------------------------|--

							http://www.guitartabcreator.com
Instruments
{"strings":[[[".",".","_",".","|","_","_",".","_","|",".",".","_",".","|","_","_",".","_","|",".",".","_",".","|","_","_",".","_","|",".",".","_",".","|","_","_",".","_","|"],[".",".","_",".","|","_","_",".","_","|",".",".","_",".","|","_","_",".","_","|",".",".","_",".","|","_","_",".","_","|",".",".","_",".","|","_","_",".","_","|"],[".",".","_",".","|","_","_",".","_","|",".",".","_",".","|","_","_",".","_","|",".",".","_",".","|","_","_",".","_","|",".",".","_",".","|","_","_",".","_","|"],[".",".","_",".","|","_","_",".","_","|",".",".","_",".","|","_","_",".","_","|",".",".","_",".","|","_","_",".","_","|",".",".","_",".","|","_","_",".","_","|"],[4,4,"_",4,"|","_","_",4,"_","|",4,4,"_",4,"|","_","_",4,"_","|",2,2,"_",2,"|","_","_",2,"_","|",2,2,"_",2,"|","_","_",2,"_","|"],[2,2,"_",2,"|","_","_",2,"_","|",2,2,"_",2,"|","_","_",2,"_","|",0,0,"_",0,"|","_","_",0,"_","|",0,0,"_",0,"|","_","_",0,"_","|"]],[[".",".","_",".","|","_","_",".","_","|",".",".","_",".","|","_","_",".","_","|",".",".","_",".","|","_","_",".","_","|",".",".","_",".","|","_","_",".","_","|"],[".",".","_",".","|","_","_",".","_","|",".",".","_",".","|","_","_",".","_","|",".",".","_",".","|","_","_",".","_","|",".",".","_",".","|","_","_",".","_","|"],[".",".","_",".","|","_","_",".","_","|",".",".","_",".","|","_","_",".","_","|",".",".","_",".","|","_","_",".","_","|",".",".","_",".","|","_","_",".","_","|"],[".",".","_",".","|","_","_",".","_","|",".",".","_",".","|","_","_",".","_","|",".",".","_",".","|","_","_",".","_","|",".",".","_",".","|","_","_",".","_","|"],[5,5,"_",5,"|","_","_",5,"_","|",5,5,"_",5,"|","_","_",5,"_","|",4,4,"_",4,"|","_","_",4,"_","|",4,4,"_",4,"|","_","_",4,"_","|"],[5,5,"_",5,"|","_","_",5,"_","|",5,5,"_",5,"|","_","_",5,"_","|",4,4,"_",4,"|","_","_",2,"_","|",1,1,"_",1,"|","_","_",1,"_","|"]],[[".","_","_",".","|","_","_","_","_","|",".","_","_",".","|","_","_","_","_","|",".","_","_",".","|","_","_","_","_","|",".","_","_",".","|","_","_","_","_","|"],[".","_","_",".","|","_","_","_","_","|",".","_","_",".","|","_","_","_","_","|",".","_","_",".","|","_","_","_","_","|",".","_","_",".","|","_","_","_","_","|"],[".","_","_",".","|","_","_","_","_","|",".","_","_",".","|","_","_","_","_","|",".","_","_",".","|","_","_","_","_","|",".","_","_",".","|","_","_","_","_","|"],[7,"_","_",7,"|","_","_","_","_","|",9,"_","_",9,"|","_","_","_","_","|",4,"_","_",4,"|","_","_","_","_","|",6,"_","_",6,"|","_","_","_","_","|"],[5,"_","_",5,"|","_","_","_","_","|",7,"_","_",7,"|","_","_","_","_","|",2,"_","_",2,"|","_","_","_","_","|",4,"_","_",4,"|","_","_","_","_","|"],[".","_","_",".","|","_","_","_","_","|",".","_","_",".","|","_","_","_","_","|",".","_","_",".","|","_","_","_","_","|",".","_","_",".","|","_","_","_","_","|"]],[[".","_","_",".","|","_","_","_","_","|",".","_","_",".","|","_","_","_","_","|",".","_","_",".","|","_","_","_","_","|",".","_","_",".","|","_","_","_","_","|"],[".","_","_",".","|","_","_","_","_","|",".","_","_",".","|","_","_","_","_","|",".","_","_",".","|","_","_","_","_","|",".","_","_",".","|","_","_","_","_","|"],[".","_","_",".","|","_","_","_","_","|",".","_","_",".","|","_","_","_","_","|",".","_","_",".","|","_","_","_","_","|",".","_","_",".","|","_","_","_","_","|"],[".","_","_",".","|","_","_","_","_","|",".","_","_",".","|","_","_","_","_","|",".","_","_",".","|","_","_","_","_","|",".","_","_",".","|","_","_","_","_","|"],[5,"_","_",5,"|","_","_","_","_","|",7,"_","_",7,"|","_","_","_","_","|",2,"_","_",2,"|","_","_","_","_","|",4,"_","_",4,"|","_","_","_","_","|"],[".","_","_",".","|","_","_","_","_","|",".","_","_",".","|","_","_","_","_","|",".","_","_",".","|","_","_","_","_","|",".","_","_",".","|","_","_","_","_","|"]],[[".","_","_",".","|","_","_","_","_","|",".","_","_",".","|","_","_","_","_","|"],[".","_","_",".","|","_","_","_","_","|",".","_","_",".","|","_","_","_","_","|"],[".","_","_",".","|","_","_","_","_","|",".","_","_",".","|","_","_","_","_","|"],[7,"_","_",7,"|","_","_","_","_","|",9,"_","_",9,"|","_","_","_","_","|"],[5,"_","_",5,"|","_","_","_","_","|",7,"_","_",7,"|","_","_","_","_","|"],[".","_","_",".","|","_","_","_","_","|",".","_","_",".","|","_","_","_","_","|"]],[[".","_","_",".","_",".",".","_","|","_",".",".",".",".",".",".",".","|"],[".","_","_",".","_",".",".","_","|","_",".",".",".",".",".",".",".","|"],[".","_","_",".","_",".",".","_","|","_",".",".",".",".",".",".",".","|"],[".","_","_",".","_",".",".","_","|","_",".",".",".",".",".",".",".","|"],[4,"_","_",2,"_",4,5,"_","|","_",5,5,5,5,5,5,5,"|"],[2,"_","_",2,"_",2,2,"_","|","_",2,2,2,2,2,2,2,"|"]],[[".","_","_",".","_",".",".","_","|","_",".",".","_",".","_",".",".","|",".","_","_",".","_",".",".","|","_",".",".","_",".","_",".","|"],[".","_","_",".","_",".",".","_","|","_",".",".","_",".","_",".",".","|",".","_","_",".","_",".",".","|","_",".",".","_",".","_",".","|"],[".","_","_",".","_",".",".","_","|","_",".",".","_",".","_",".",".","|",".","_","_",".","_",".",".","|","_",".",".","_",".","_",".","|"],[".","_","_",".","_",".",".","_","|","_",".",".","_",".","_",".",".","|",".","_","_",".","_",".",4,"|","_",4,4,"_",4,"_",4,"|"],[4,"_","_",4,"_",4,4,"_","|","_",4,4,"_",4,"_",4,4,"|",2,"_","_",2,"_",2,2,"|","_",2,2,"_",2,"_",2,"|"],[2,"_","_",2,"_",0,2,"_","|","_",2,2,"_",2,"_",2,2,"|",0,"_","_",0,"_",0,".","|","_",".",".","_",".","_",".","|"]],[[".","_","_","_","_","_","_","_","|","_","_","_","_","_","_","_","_","|",".","_","_",".","_","_",".","|","_","_","_","_","_","_","_","_","|"],[".","_","_","_","_","_","_","_","|","_","_","_","_","_","_","_","_","|",".","_","_",".","_","_",".","|","_","_","_","_","_","_","_","_","|"],[".","_","_","_","_","_","_","_","|","_","_","_","_","_","_","_","_","|",".","_","_",".","_","_",".","|","_","_","_","_","_","_","_","_","|"],[".","_","_","_","_","_","_","_","|","_","_","_","_","_","_","_","_","|",".","_","_",".","_","_",4,"|","_","_","_","_","_","_","_","_","|"],[4,"_","_","_","_","_","_","_","|","_","_","_","_","_","_","_","_","|",2,"_","_",2,"_","_",2,"|","_","_","_","_","_","_","_","_","|"],[2,"_","_","_","_","_","_","_","|","_","_","_","_","_","_","_","_","|",0,"_","_",0,"_","_",".","|","_","_","_","_","_","_","_","_","|"]]],"numberofstrings":6,"notes":["E","B","G","D","A","E","B"],"capo":0,"stringnotes":["E4","B3","G3","D3","A2","E2"],"comments":["Stave 1:","Stave 2:","Stave 3:","Stave 4:","Stave 5:","Stave 6:","Stave 7:","Stave 8:"],"timing":[["W","W",null,"W",null,null,null,"W",null,null,"W","W",null,"W",null,null,null,"W",null,null,"W","W",null,"W",null,null,null,"W",null,null,"W","W",null,"W",null,null,null,"W"],["W","W",null,"W",null,null,null,"W",null,null,"W","W",null,"W",null,null,null,"W",null,null,"W","W",null,"W",null,null,null,"W",null,null,"W","W",null,"W",null,null,null,"W"],["W",null,null,"W",null,null,null,null,null,null,"W",null,null,"W",null,null,null,null,null,null,"W",null,null,"W",null,null,null,null,null,null,"W",null,null,"W"],["W",null,null,"W",null,null,null,null,null,null,"W",null,null,"W",null,null,null,null,null,null,"W",null,null,"W",null,null,null,null,null,null,"W",null,null,"W"],["W",null,null,"W",null,null,null,null,null,null,"W",null,null,"W"],["W",null,null,"W",null,"W","W",null,null,null,"W","W","W","W","W","W","W"],["W",null,null,"W",null,"W","W",null,null,null,"W","W",null,"W",null,"W","W",null,"W",null,null,"W",null,"W","W",null,null,"W","W",null,"W",null,"W","W"],["W",null,null,null,null,null,null,null,null,null,null,null,null,null,null,null,null,null,"W",null,null,"W",null,null,"W"]],"timingvisible":false,"tabcounter":35,"stave":7,"totalstaves":8,"instrument":"6guitar","selectedtuning":"6_standard","version":"13"}

Member for

8 months
Submitted by tatter75 on Tue, 2020-09-22 06:29