Painting Amongst The Feathers (lead guitar)

Chords

01234567891011121314151617181920212223
E
B
G
D
A
E
B
0 1 2 3 4 5 6 7 8 9 10 11 12 13 14 15 16 17 18 19 20 21 22 23
(/) Slide Up  (\) Slide Down  (h) Hammer On  (p) Pull Off  (b) Bend (r) Release (v) Vibrato

Stave 1:

E|--------------|--------------|--------------|--------------|--------------|--------------|--------------|--------------|--
B|--------------|--------------|--------------|--------------|--------------|--------------|--------------|--------------|--
G|--4--2--1--2--|--------------|--4--2--1--2--|--------------|--2--1-----1--|--------------|--2--1-----1--|--------------|--
D|--------------|--------------|--------------|--------------|--------4-----|--------------|--------4-----|--------------|--
A|--------------|--------------|--------------|--------------|--------------|--------------|--------------|--------------|--
E|--------------|--------------|--------------|--------------|--------------|--------------|--------------|--------------|--

Stave 2:

E|--------------|--------------|--------------|--------------|--------------|---------------|--------------|--------------|--
B|--------------|--------------|--------------|--------------|--------------|---------------|--------------|--------------|--
G|--1-----1-----|--------------|--1-----1-----|--------------|--------------|---------------|--------------|--------------|--
D|-----4-----4--|--------------|-----4-----4--|--------------|--4--------4--|--------4h6p4--|--3--------3--|--------------|--
A|--------------|--------------|--------------|--------------|--------------|---------------|--------------|--------------|--
E|--------------|--------------|--------------|--------------|--------------|---------------|--------------|--------------|--

Stave 3:

E|--------------------------|--------------------------|--------------------------|--------------------------|--
B|--------------------------|--------------------------|--7-----------7-----------|--------------------------|--
G|--7-----------7-----------|--9-----------9-----------|--------------------------|--6-----------6-----------|--
D|-----7--6--7-----7--6--7--|-----7--6--7-----7--6--7--|-----7--6--7-----7--6--7--|-----7--6--------7--6-----|--
A|--------------------------|--------------------------|--------------------------|-----------9-----------9--|--
E|--------------------------|--------------------------|--------------------------|--------------------------|--

Stave 4:

E|--------------------------|--------------------------|--------------------------|--------------------------|--
B|--------------------------|--------------------------|--7-----------7-----------|--------------------------|--
G|--7-----------7-----------|--9-----------9-----------|--------------------------|--6-----------6-----------|--
D|-----7--6--7-----7--6--7--|-----7--6--7-----7--6--7--|-----7--6--7-----7--6--7--|-----7--6--------7--6-----|--
A|--------------------------|--------------------------|--------------------------|-----------9-----------9--|--
E|--------------------------|--------------------------|--------------------------|--------------------------|--

Stave 5:

E|--------------------------|--------------------------|--
B|--------------------------|--------------------------|--
G|--7-----------7-----------|--9-----------9-----------|--
D|-----7--6--7-----7--6--7--|-----7--6--7-----7--6--7--|--
A|--------------------------|--------------------------|--
E|--------------------------|--------------------------|--

Stave 6:

E|-------------------------|--------------------------|-------------------|----------------------|--
B|-------------------------|--------------------------|-------------------|----------------------|--
G|-------------------------|--------------------------|-------------------|----------------------|--
D|--4--------4-----4--6h7--|-----7--------7-----------|--4h6-----6-----6--|----------------------|--
A|-------------------------|--------------------------|-------------------|--4h5-----5--------5--|--
E|-------------------------|--------------------------|-------------------|----------------------|--

Stave 7:

E|--------------------------|--------------------------|--------------------------|--------------------------|--
B|--------------------------|--------------------------|--------------------------|--------------------------|--
G|--------------------------|--------------------------|--------------------------|--------------------------|--
D|--------------2-----4-----|--------------------------|--------------------------|--------------------------|--
A|--2--4--4--4-----------4--|-----4--4--4--2--4--2-----|--------------------------|--------------------------|--
E|--------------------------|-----------------------5--|--4-----5--4--------2-----|-----2--2-----2-----------|--

Stave 8:

E|--------------------------|--------------------------|--------------------------|--------------------------|--
B|--------------------------|--------------------------|--------------------------|--------------------------|--
G|--------------------------|--------------------------|--------------------------|--------------------------|--
D|--------------2-----4-----|--------------------------|--------------------------|--------------------------|--
A|--2--4--4--4-----------4--|-----4--4--4--2--4--2-----|--7--------7--------5-----|-----5--------5-----------|--
E|--------------------------|-----------------------5--|--------------------------|--------------------------|--

							http://www.guitartabcreator.com
Instruments
{"strings":[[[".",".",".",".","|","_","_","_","_","|",".",".",".",".","|","_","_","_","_","|",".",".",".",".","|","_","_","_","_","|",".",".",".",".","|","_","_","_","_","|"],[".",".",".",".","|","_","_","_","_","|",".",".",".",".","|","_","_","_","_","|",".",".",".",".","|","_","_","_","_","|",".",".",".",".","|","_","_","_","_","|"],[4,2,1,2,"|","_","_","_","_","|",4,2,1,2,"|","_","_","_","_","|",2,1,".",1,"|","_","_","_","_","|",2,1,".",1,"|","_","_","_","_","|"],[".",".",".",".","|","_","_","_","_","|",".",".",".",".","|","_","_","_","_","|",".",".",4,".","|","_","_","_","_","|",".",".",4,".","|","_","_","_","_","|"],[".",".",".",".","|","_","_","_","_","|",".",".",".",".","|","_","_","_","_","|",".",".",".",".","|","_","_","_","_","|",".",".",".",".","|","_","_","_","_","|"],[".",".",".",".","|","_","_","_","_","|",".",".",".",".","|","_","_","_","_","|",".",".",".",".","|","_","_","_","_","|",".",".",".",".","|","_","_","_","_","|"]],[[".",".",".",".","|","_","_","_","_","|",".",".",".",".","|","_","_","_","_","|",".","_","_",".","|","_","_",".",".",".",".",".","|",".","_","_",".","|","_","_","_","_","|"],[".",".",".",".","|","_","_","_","_","|",".",".",".",".","|","_","_","_","_","|",".","_","_",".","|","_","_",".",".",".",".",".","|",".","_","_",".","|","_","_","_","_","|"],[1,".",1,".","|","_","_","_","_","|",1,".",1,".","|","_","_","_","_","|",".","_","_",".","|","_","_",".",".",".",".",".","|",".","_","_",".","|","_","_","_","_","|"],[".",4,".",4,"|","_","_","_","_","|",".",4,".",4,"|","_","_","_","_","|",4,"_","_",4,"|","_","_",4,"h",6,"p",4,"|",3,"_","_",3,"|","_","_","_","_","|"],[".",".",".",".","|","_","_","_","_","|",".",".",".",".","|","_","_","_","_","|",".","_","_",".","|","_","_",".",".",".",".",".","|",".","_","_",".","|","_","_","_","_","|"],[".",".",".",".","|","_","_","_","_","|",".",".",".",".","|","_","_","_","_","|",".","_","_",".","|","_","_",".",".",".",".",".","|",".","_","_",".","|","_","_","_","_","|"]],[[".",".",".",".",".",".",".",".","|",".",".",".",".",".",".",".",".","|",".",".",".",".",".",".",".",".","|",".",".",".",".",".",".",".",".","|"],[".",".",".",".",".",".",".",".","|",".",".",".",".",".",".",".",".","|",7,".",".",".",7,".",".",".","|",".",".",".",".",".",".",".",".","|"],[7,".",".",".",7,".",".",".","|",9,".",".",".",9,".",".",".","|",".",".",".",".",".",".",".",".","|",6,".",".",".",6,".",".",".","|"],[".",7,6,7,".",7,6,7,"|",".",7,6,7,".",7,6,7,"|",".",7,6,7,".",7,6,7,"|",".",7,6,".",".",7,6,".","|"],[".",".",".",".",".",".",".",".","|",".",".",".",".",".",".",".",".","|",".",".",".",".",".",".",".",".","|",".",".",".",9,".",".",".",9,"|"],[".",".",".",".",".",".",".",".","|",".",".",".",".",".",".",".",".","|",".",".",".",".",".",".",".",".","|",".",".",".",".",".",".",".",".","|"]],[[".",".",".",".",".",".",".",".","|",".",".",".",".",".",".",".",".","|",".",".",".",".",".",".",".",".","|",".",".",".",".",".",".",".",".","|"],[".",".",".",".",".",".",".",".","|",".",".",".",".",".",".",".",".","|",7,".",".",".",7,".",".",".","|",".",".",".",".",".",".",".",".","|"],[7,".",".",".",7,".",".",".","|",9,".",".",".",9,".",".",".","|",".",".",".",".",".",".",".",".","|",6,".",".",".",6,".",".",".","|"],[".",7,6,7,".",7,6,7,"|",".",7,6,7,".",7,6,7,"|",".",7,6,7,".",7,6,7,"|",".",7,6,".",".",7,6,".","|"],[".",".",".",".",".",".",".",".","|",".",".",".",".",".",".",".",".","|",".",".",".",".",".",".",".",".","|",".",".",".",9,".",".",".",9,"|"],[".",".",".",".",".",".",".",".","|",".",".",".",".",".",".",".",".","|",".",".",".",".",".",".",".",".","|",".",".",".",".",".",".",".",".","|"]],[[".",".",".",".",".",".",".",".","|",".",".",".",".",".",".",".",".","|"],[".",".",".",".",".",".",".",".","|",".",".",".",".",".",".",".",".","|"],[7,".",".",".",7,".",".",".","|",9,".",".",".",9,".",".",".","|"],[".",7,6,7,".",7,6,7,"|",".",7,6,7,".",7,6,7,"|"],[".",".",".",".",".",".",".",".","|",".",".",".",".",".",".",".",".","|"],[".",".",".",".",".",".",".",".","|",".",".",".",".",".",".",".",".","|"]],[[".","_","_",".","_",".",".",".",".","|","_",".","_","_",".","_","_","_","|",".",".",".","_",".","_",".","|",".",".",".","_",".","_","_",".","|"],[".","_","_",".","_",".",".",".",".","|","_",".","_","_",".","_","_","_","|",".",".",".","_",".","_",".","|",".",".",".","_",".","_","_",".","|"],[".","_","_",".","_",".",".",".",".","|","_",".","_","_",".","_","_","_","|",".",".",".","_",".","_",".","|",".",".",".","_",".","_","_",".","|"],[4,"_","_",4,"_",4,6,"h",7,"|","_",7,"_","_",7,"_","_","_","|",4,"h",6,"_",6,"_",6,"|",".",".",".","_",".","_","_",".","|"],[".","_","_",".","_",".",".",".",".","|","_",".","_","_",".","_","_","_","|",".",".",".","_",".","_",".","|",4,"h",5,"_",5,"_","_",5,"|"],[".","_","_",".","_",".",".",".",".","|","_",".","_","_",".","_","_","_","|",".",".",".","_",".","_",".","|",".",".",".","_",".","_","_",".","|"]],[[".",".",".",".",".","_",".",".","|","_",".",".",".",".",".",".",".","|",".","_",".",".","_","_",".","_","|","_",".",".","_",".","_","_","_","|"],[".",".",".",".",".","_",".",".","|","_",".",".",".",".",".",".",".","|",".","_",".",".","_","_",".","_","|","_",".",".","_",".","_","_","_","|"],[".",".",".",".",".","_",".",".","|","_",".",".",".",".",".",".",".","|",".","_",".",".","_","_",".","_","|","_",".",".","_",".","_","_","_","|"],[".",".",".",".",2,"_",4,".","|","_",".",".",".",".",".",".",".","|",".","_",".",".","_","_",".","_","|","_",".",".","_",".","_","_","_","|"],[2,4,4,4,".","_",".",4,"|","_",4,4,4,2,4,2,".","|",".","_",".",".","_","_",".","_","|","_",".",".","_",".","_","_","_","|"],[".",".",".",".",".","_",".",".","|","_",".",".",".",".",".",".",5,"|",4,"_",5,4,"_","_",2,"_","|","_",2,2,"_",2,"_","_","_","|"]],[[".",".",".",".",".","_",".",".","|","_",".",".",".",".",".",".",".","|",".","_","_",".","_","_",".","_","|","_",".","_","_",".","_","_","_","|"],[".",".",".",".",".","_",".",".","|","_",".",".",".",".",".",".",".","|",".","_","_",".","_","_",".","_","|","_",".","_","_",".","_","_","_","|"],[".",".",".",".",".","_",".",".","|","_",".",".",".",".",".",".",".","|",".","_","_",".","_","_",".","_","|","_",".","_","_",".","_","_","_","|"],[".",".",".",".",2,"_",4,".","|","_",".",".",".",".",".",".",".","|",".","_","_",".","_","_",".","_","|","_",".","_","_",".","_","_","_","|"],[2,4,4,4,".","_",".",4,"|","_",4,4,4,2,4,2,".","|",7,"_","_",7,"_","_",5,"_","|","_",5,"_","_",5,"_","_","_","|"],[".",".",".",".",".","_",".",".","|","_",".",".",".",".",".",".",5,"|",".","_","_",".","_","_",".","_","|","_",".","_","_",".","_","_","_","|"]]],"numberofstrings":6,"notes":["E","B","G","D","A","E","B"],"capo":0,"stringnotes":["E4","B3","G3","D3","A2","E2"],"comments":["Stave 1:","Stave 2:","Stave 3:","Stave 4:","Stave 5:","Stave 6:","Stave 7:","Stave 8:"],"timing":[["W","W","W","W",null,null,null,null,null,null,"W","W","W","W",null,null,null,null,null,null,"W","W","W","W",null,null,null,null,null,null,"W","W","W","W"],["W","W","W","W",null,null,null,null,null,null,"W","W","W","W",null,null,null,null,null,null,"W",null,null,"W",null,null,null,"W",null,"W",null,"W",null,"W",null,null,"W"],["W","W","W","W","W","W","W","W",null,"W","W","W","W","W","W","W","W",null,"W","W","W","W","W","W","W","W",null,"W","W","W","W","W","W","W","W"],["W","W","W","W","W","W","W","W",null,"W","W","W","W","W","W","W","W",null,"W","W","W","W","W","W","W","W",null,"W","W","W","W","W","W","W","W"],["W","W","W","W","W","W","W","W",null,"W","W","W","W","W","W","W","W"],["W",null,null,"W",null,"W","W",null,"W",null,null,"W",null,null,"W",null,null,null,null,"W",null,"W",null,"W",null,"W",null,"W",null,"W",null,"W",null,null,"W"],["W","W","W","W","W",null,"W","W",null,null,"W","W","W","W","W","W","W",null,"W",null,"W","W",null,null,"W",null,null,null,"W","W",null,"W"],["W","W","W","W","W",null,"W","W",null,null,"W","W","W","W","W","W","W",null,"W",null,null,"W",null,null,"W",null,null,null,"W",null,null,"W"]],"timingvisible":false,"tabcounter":36,"stave":7,"totalstaves":8,"instrument":"6guitar","selectedtuning":"6_standard","version":"13"}

Member for

8 months
Submitted by tatter75 on Tue, 2020-09-22 07:05