One Jump Of The Sun (Picking Intro)

Chords

01234567891011121314151617181920212223
E
B
G
D
A
E
B
0 1 2 3 4 5 6 7 8 9 10 11 12 13 14 15 16 17 18 19 20 21 22 23
(/) Slide Up  (\) Slide Down  (h) Hammer On  (p) Pull Off  (b) Bend (r) Release (v) Vibrato

Stave 1:

E|--------------0-----------|--------------0-----------|--------------0-----------|--------------0-----------|--
B|-----------0-----0--------|-----------0-----0--------|-----------0-----0--------|-----------0-----0--------|--
G|--------8-----------8-----|--------8-----------8-----|--------8-----------8-----|--------8-----------8-----|--
D|-----6-----------------6--|-----6-----------------6--|-----6-----------------6--|-----6-----------------6--|--
A|--7-----------------------|--7-----------------------|--4-----------------------|--4-----------------------|--
E|--------------------------|--------------------------|--------------------------|--------------------------|--

Stave 2:

E|--------------0-----------|--------------0-----------|--------------4-----------|--------------2-----------|--
B|-----------4-----4--------|-----------4-----4--------|-----------5-----5--------|-----------4-----4--------|--
G|--------6-----------6-----|--------6-----------6-----|--------6-----------6-----|--------4-----------4-----|--
D|-----7-----------------7--|-----7-----------------7--|-----6-----------------6--|-----4-----------------4--|--
A|--------------------------|--------------------------|--0-----------------------|--------------------------|--
E|--7-----------------------|--7-----------------------|--------------------------|--4-----------------------|--

							http://www.guitartabcreator.com
Instruments
{"strings":[[[".",".",".",".",0,".",".",".","|",".",".",".",".",0,".",".",".","|",".",".",".",".",0,".",".",".","|",".",".",".",".",0,".",".",".","|"],[".",".",".",0,".",0,".",".","|",".",".",".",0,".",0,".",".","|",".",".",".",0,".",0,".",".","|",".",".",".",0,".",0,".",".","|"],[".",".",8,".",".",".",8,".","|",".",".",8,".",".",".",8,".","|",".",".",8,".",".",".",8,".","|",".",".",8,".",".",".",8,".","|"],[".",6,".",".",".",".",".",6,"|",".",6,".",".",".",".",".",6,"|",".",6,".",".",".",".",".",6,"|",".",6,".",".",".",".",".",6,"|"],[7,".",".",".",".",".",".",".","|",7,".",".",".",".",".",".",".","|",4,".",".",".",".",".",".",".","|",4,".",".",".",".",".",".",".","|"],[".",".",".",".",".",".",".",".","|",".",".",".",".",".",".",".",".","|",".",".",".",".",".",".",".",".","|",".",".",".",".",".",".",".",".","|"]],[[".",".",".",".",0,".",".",".","|",".",".",".",".",0,".",".",".","|",".",".",".",".",4,".",".",".","|",".",".",".",".",2,".",".",".","|"],[".",".",".",4,".",4,".",".","|",".",".",".",4,".",4,".",".","|",".",".",".",5,".",5,".",".","|",".",".",".",4,".",4,".",".","|"],[".",".",6,".",".",".",6,".","|",".",".",6,".",".",".",6,".","|",".",".",6,".",".",".",6,".","|",".",".",4,".",".",".",4,".","|"],[".",7,".",".",".",".",".",7,"|",".",7,".",".",".",".",".",7,"|",".",6,".",".",".",".",".",6,"|",".",4,".",".",".",".",".",4,"|"],[".",".",".",".",".",".",".",".","|",".",".",".",".",".",".",".",".","|",0,".",".",".",".",".",".",".","|",".",".",".",".",".",".",".",".","|"],[7,".",".",".",".",".",".",".","|",7,".",".",".",".",".",".",".","|",".",".",".",".",".",".",".",".","|",4,".",".",".",".",".",".",".","|"]]],"numberofstrings":6,"notes":["E","B","G","D","A","E","B"],"capo":0,"stringnotes":["E4","B3","G3","D3","A2","E2"],"comments":["Stave 1:","Stave 2:"],"timing":[["W","W","W","W","W","W","W","W",null,"W","W","W","W","W","W","W","W",null,"W","W","W","W","W","W","W","W",null,"W","W","W","W","W","W","W","W"],["W","W","W","W","W","W","W","W",null,"W","W","W","W","W","W","W","W",null,"W","W","W","W","W","W","W","W",null,"W","W","W","W","W","W","W","W"]],"timingvisible":false,"tabcounter":36,"stave":1,"totalstaves":2,"instrument":"6guitar","selectedtuning":"6_standard","version":"13"}

Member for

9 months 1 week
Submitted by tatter75 on Mon, 2020-10-05 02:57