Deep Sleep Erotica

01234567891011121314151617181920212223
E
B
G
D
A
E
B
0 1 2 3 4 5 6 7 8 9 10 11 12 13 14 15 16 17 18 19 20 21 22 23
(/) Slide Up  (\) Slide Down  (h) Hammer On  (p) Pull Off  (b) Bend (r) Release (v) Vibrato

Stave 1:

E|--------------------------|--------------------------|--------------------------|--------------------------|--
B|--------------------------|--------------------------|--------------------------|--------------------------|--
G|--------------------------|--------------------------|--------------------------|--------------------------|--
D|--------------------------|--------------------------|--------------------------|--------------------------|--
A|--5--5--5--5--5--5--5--5--|--6--6--6--6--6--6--6--6--|--6--6--6--6--6--6--6--6--|--1--1--1--1--1--1--1--1--|--
E|--------------------------|--------------------------|--------------------------|--------------------------|--

Stave 2:

E|--------------------------|--------------------------|--------------------------|--------------------------|--
B|--------------------------|--------------------------|--------------------------|--------------------------|--
G|--------------------------|--------------------------|--------------------------|--------------------------|--
D|--------------------------|--------------------------|--------------------------|--------------------------|--
A|--2--2--2--2--2--2--2--2--|--2--2--2--2--2--2--2--2--|--2--2--2--2--2--2--2--2--|--------------------------|--
E|--------------------------|--------------------------|--------------------------|--2--2--2--2--1--1--1--1--|--

Stave 3:

E|--------------------------|--------------------------|--------------------------|--------------------------|--
B|--------------------------|--------------------------|--------------------------|--------------------------|--
G|--------------------------|--------------------------|--------------------------|--------------------------|--
D|--------------------------|--------------------------|--------------------------|--------------------------|--
A|--------------------------|--------------------------|--------------------------|--------------------------|--
E|--3--3--3--3--3--3--3--3--|--4--4--4--4--4--4--4--4--|--4--4--4--4--4--4--4--4--|--1--1--1--1--1--1--1--1--|--

Stave 4:

E|--------------------------|--------------------------|--------------------------|--------------------------|--
B|--------------------------|--------------------------|--------------------------|--------------------------|--
G|--------------------------|--------------------------|--------------------------|--------------------------|--
D|--------------------------|--------------------------|--------------------------|--------------------------|--
A|--------------------------|--------------------------|--------------------------|--------------------------|--
E|--2--2--2--2--2--2--2--2--|--2--2--2--2--2--2--2--2--|--1--1--1--1--1--1--1--1--|--1--1--1--1--1--1--1--1--|--

Stave 5:

E|--------------------------|--------------------------|--------------------------|--------------------------|--
B|--------------------------|--------------------------|--------------------------|--------------------------|--
G|--------------------------|--------------------------|--------------------------|--------------------------|--
D|--------------------------|--------------------------|--------------------------|--------------------------|--
A|--2-----------------------|--------------4-----------|--5-----------------------|--------------------4--2--|--
E|--0-----------------------|--------------2-----------|--3-----------------------|--------------------2--0--|--

Stave 6:

E|--------------------------|--------------------------|--------------------------|--------------------------|--
B|--------------------------|--------------------------|--------------------------|--------------------------|--
G|--------------------------|--------------------------|--------------------------|--------------------------|--
D|--2-----------------------|--------------4-----------|--5--------------------4--|--2-----------7-----------|--
A|--0-----------------------|--------------2-----------|--3--------------------2--|--0-----------5-----------|--
E|--------------------------|--------------------------|--------------------------|--------------------------|--

Stave 7:

E|--------------------------|--------------------------|--------------------------|--------------------------|--
B|--------------------------|--------------------------|--------------------------|--------------------------|--
G|--------------------------|--------------------------|--------------------------|--------------------------|--
D|--------------4--4--3-----|--------------------------|--------4--4--3-----------|--------------------------|--
A|--2-----5-----2--2--1-----|--4-----5-----3--3--2-----|--5-----2--2--1-----4-----|--5-----3--3--------3--3--|--
E|--0-----3-----------------|--2-----3-----1--1--0-----|--3-----------------2-----|--3-----1--1--------1--1--|--

Stave 8:

E|--------------------------|--------------------------|--------------------------|--------------------------|--
B|--------------------------|--------------------------|--------------------------|--------------------------|--
G|--------------------------|--------------------------|--------------------------|--------------------------|--
D|--------------------------|--------------------------|--------------------------|--------------------------|--
A|--------------------------|--3--3--3--3--3--3--3--3--|--------------3--3--3--3--|--1--1--1--1--1--1--1--1--|--
E|--0--0--0--0--0--0--0--0--|--------------------------|--0--0--0--0--------------|--------------------------|--

Stave 9:

E|--------------------------|--------------------------|--------------------------|--------------------------|--
B|--------------------------|--------------------------|--------------------------|--------------------------|--
G|--------------------------|--------------------------|--------------------------|--------------------------|--
D|--------------------------|--------------------------|--------------------------|--------------------------|--
A|--------------------------|--3--3--3--3--3--3--3--3--|--------------3--3--3--3--|--1--1--1--1--2--2--2--2--|--
E|--0--0--0--0--0--0--0--0--|--------------------------|--0--0--0--0--------------|--------------------------|--

Stave 10:

E|--------------------------|--------------------------|--------------------------|--------------------------|--
B|--------------------------|--------------------------|--------------------------|--------------------------|--
G|--------------------------|--------------------------|--------------------------|--------------------------|--
D|--------------------------|--------------------------|--------------------------|--------------------------|--
A|--------------------------|--------------------------|--------------------------|--------------------------|--
E|--2--2--2--2--2--2--2--2--|--2--2--2--2--2--2--2--2--|--3--3--3--3--3--3--3--3--|--3--3--3--3--3--3--3--3--|--

Stave 11:

E|--------------------------|--------------------------|--------------------------|--------------------------|--
B|--------------------------|--------------------------|--------------------------|--------------------------|--
G|--------------------------|--------------------------|--------------------------|--------------------------|--
D|--------------------------|--------------------------|--------------------------|--------------------------|--
A|--------------------------|--------------5--5--5--5--|--3--3--3--3--5--5--5--5--|--6--6--6--6--6--6--6--6--|--
E|--2--2--2--2--2--2--2--2--|--2--2--2--2--------------|--------------------------|--------------------------|--

Stave 12:

E|--------------------------|--------------------------|--
B|--------------------------|--------------------------|--
G|--------------------------|--------------------------|--
D|--------------------------|--------------------------|--
A|--2-----2--2--3-----3--3--|--3--5--3-----5--6--3-----|--
E|--0-----0--0--1-----1--1--|--1--3--1-----3--4--1-----|--

Stave 13:

E|--------------------------|--------------------------|--------------------------|--------------------------|--
B|--------------------------|--------------------------|--------------------------|--------------------------|--
G|--------------------------|--------------------------|--------------------------|--------------------------|--
D|--------------------------|--------------------------|--------------------------|--2-----------------0--2--|--
A|--------------------------|--2-----------------0--2--|--3-----------------2--3--|--------------------------|--
E|--0-----------------2--3--|--------------------------|--------------------------|--------------------------|--

Stave 14:

E|--------------------------|--------------------------|--------------------------|--------------------------|--
B|--------------------------|--------------------------|--------------------------|--------------------------|--
G|--------------------------|--------------------------|--------------------------|--------------------------|--
D|--4-----------------7--9--|--------------------5--4--|--2-----------------5--4--|--2-----------------------|--
A|--------------------------|--5-----------------------|--------------------------|--------------------------|--
E|--------------------------|--------------------------|--------------------------|--------------------3--2--|--

Stave 15:

E|--------------------------|--------------------------|--------------------------|--------------------------|--
B|--------------------------|--------------------------|--------------------------|--------------------------|--
G|--------------------------|--------------------------|--------------------------|--------------------------|--
D|--------------------------|--------------------------|--------------------------|--------------------------|--
A|--2-----------------------|--------------------------|--------------------------|--------------------2--3--|--
E|--0-----------------------|--0-----------------2--3--|--5-----------------------|--5-----------------------|--

Stave 16:

E|--------------------------|--------------------------|--------------------------|--------------------------|--
B|--------------------------|--------------------------|--------------------------|--------------------------|--
G|--------------------------|--------------------------|--------------------------|--------------------------|--
D|--------------------------|--------------------------|--------------------------|--------------------------|--
A|--5-----------------------|--5-----------------------|--3-----------------------|--2-----------------------|--
E|--------------------------|--------------------3--2--|--------------------3--2--|--------------------3--2--|--

Stave 17:

E|---------------------------|-----------------------------|---------------------------|-----------------------------|--
B|---------------------------|-----------------------------|---------------------------|-----------------------------|--
G|---------------------------|-----------------------------|---------------------------|-----------------------------|--
D|-----9--9--------7--9--10--|--7------7--9----------------|-----9--9--------7--9--10--|--7------7--9----------------|--
A|--7------------------------|-----10--------10--9--10--5--|--7------------------------|-----10--------10--9--10--5--|--
E|---------------------------|-----------------------------|---------------------------|-----------------------------|--

Stave 18:

E|--------------------------|--------------------------|-----------------------------|------------------------|--
B|--------------------------|--------------------------|-----------------------------|------------------------|--
G|--------------------------|--------------------------|-----------------------------|------------------------|--
D|-----7--7-----------------|-----5--5-----------------|-----4--4--------5--4h5p4p0--|--2/4--4/5--5--4--2--0--|--
A|--3--------------3--2--3--|--2--------------2--0--2--|--0--------------------------|------------------------|--
E|--------------------------|--------------------------|-----------------------------|------------------------|--

Stave 19:

E|--------------------------|--------------------------|--------------------------|--------------------------|--
B|--------------------------|--------------------------|--------------------------|--------------------------|--
G|--------------------------|--------------------------|--------------------------|--------------------------|--
D|--------------------------|--------------------------|--------------------------|--------------------------|--
A|-----2--2--------0--2--3--|--0-----0--2-----------5--|-----2--2--------0--2--3--|--0-----0--2-----------5--|--
E|--0-----------------------|-----3--------3--2--3-----|--0-----------------------|-----3--------3--2--3-----|--

Stave 20:

E|----------------------------|--------------------------|-----------------------------|------------------------|--
B|----------------------------|--------------------------|-----------------------------|------------------------|--
G|----------------------------|--------------------------|-----------------------------|------------------------|--
D|-----10--10-----------------|-----9--9-----------------|-----7--7--------9--7h9p7\4--|--5/7--7/9--9--7--5--4--|--
A|--7----------------7--5--7--|--5--------------5--3--5--|--3--------------------------|------------------------|--
E|----------------------------|--------------------------|-----------------------------|------------------------|--

Stave 21:

E|--------------------------|--------------------------|--------------------------|--------------------------|--
B|--------------------------|--------------------------|--------------------------|--------------------------|--
G|--------------------------|--------------------------|--------------------------|--------------------------|--
D|--------------------------|--------------------------|--------------------------|--------------------------|--
A|--2-----------------------|--5-----------------------|--2-----------------------|--1-----------------------|--
E|--0-----------------------|--3-----------------------|--2-----------------------|--1-----------------------|--

Stave 22:

E|--------------------------|--------------------------|--------------------------|--------------------------|--
B|--------------------------|--------------------------|--------------------------|--------------------------|--
G|--------------------------|--------------------------|--------------------------|--------------------------|--
D|--------------------------|--------------------------|--------------------------|--------------------------|--
A|--------------------------|--------------------------|--------------------------|--------------------------|--
E|--0--0--0--0--0--0--0--0--|--1--1--1--1--1--1--1--1--|--3--3--3--3--3--3--3--3--|--4--4--4--4--4--4--4--4--|--

Stave 23:

E|--------------------------|--------------------------|--------------------------|--------------------------|--
B|--------------------------|--------------------------|--------------------------|--------------------------|--
G|--------------------------|--------------------------|--------------------------|--------------------------|--
D|--------------------------|--------------------------|--------------------------|--------------------------|--
A|--------------------------|--------------------------|--1--1--2--2--1--1--2--2--|--4--4--5--5--4--4--5--5--|--
E|--0--0--0--0--0--0--0--0--|--1--1--1--1--1--1--1--1--|--------------------------|--------------------------|--

Stave 24:

E|--------------------------|--------------------------|--------------------------|--------------------------|--
B|--------------------------|--------------------------|--------------------------|--------------------------|--
G|--------------------------|--------------------------|--------------------------|--------------------------|--
D|--------------------------|--------------------------|--------------------------|--------------------------|--
A|--------------------------|--------------------------|--------------------------|--------------------------|--
E|--0--0--0--0--0--0--0--0--|--1--1--1--1--1--1--1--1--|--3--3--3--3--3--3--3--3--|--4--4--4--4--4--4--4--4--|--

Stave 25:

E|--------------------------|--------------------------|--------------------------|--------------------------|--
B|--------------------------|--------------------------|--------------------------|--------------------------|--
G|--------------------------|--------------------------|--------------------------|--------------------------|--
D|--------------------------|--------------------------|--------------------------|--------------------------|--
A|--------------------------|--------------------------|--4--4--5--5--4--4--5--5--|--7--7--8--8--7--7--8--8--|--
E|--0--0--0--0--0--0--0--0--|--1--1--1--1--1--1--1--1--|--------------------------|--------------------------|--

							http://www.guitartabcreator.com
Chords

Instruments
{"strings":[[[".",".",".",".",".",".",".",".","|",".",".",".",".",".",".",".",".","|",".",".",".",".",".",".",".",".","|",".",".",".",".",".",".",".",".","|"],[".",".",".",".",".",".",".",".","|",".",".",".",".",".",".",".",".","|",".",".",".",".",".",".",".",".","|",".",".",".",".",".",".",".",".","|"],[".",".",".",".",".",".",".",".","|",".",".",".",".",".",".",".",".","|",".",".",".",".",".",".",".",".","|",".",".",".",".",".",".",".",".","|"],[".",".",".",".",".",".",".",".","|",".",".",".",".",".",".",".",".","|",".",".",".",".",".",".",".",".","|",".",".",".",".",".",".",".",".","|"],[5,5,5,5,5,5,5,5,"|",6,6,6,6,6,6,6,6,"|",6,6,6,6,6,6,6,6,"|",1,1,1,1,1,1,1,1,"|"],[".",".",".",".",".",".",".",".","|",".",".",".",".",".",".",".",".","|",".",".",".",".",".",".",".",".","|",".",".",".",".",".",".",".",".","|"]],[[".",".",".",".",".",".",".",".","|",".",".",".",".",".",".",".",".","|",".",".",".",".",".",".",".",".","|",".",".",".",".",".",".",".",".","|"],[".",".",".",".",".",".",".",".","|",".",".",".",".",".",".",".",".","|",".",".",".",".",".",".",".",".","|",".",".",".",".",".",".",".",".","|"],[".",".",".",".",".",".",".",".","|",".",".",".",".",".",".",".",".","|",".",".",".",".",".",".",".",".","|",".",".",".",".",".",".",".",".","|"],[".",".",".",".",".",".",".",".","|",".",".",".",".",".",".",".",".","|",".",".",".",".",".",".",".",".","|",".",".",".",".",".",".",".",".","|"],[2,2,2,2,2,2,2,2,"|",2,2,2,2,2,2,2,2,"|",2,2,2,2,2,2,2,2,"|",".",".",".",".",".",".",".",".","|"],[".",".",".",".",".",".",".",".","|",".",".",".",".",".",".",".",".","|",".",".",".",".",".",".",".",".","|",2,2,2,2,1,1,1,1,"|"]],[[".",".",".",".",".",".",".",".","|",".",".",".",".",".",".",".",".","|",".",".",".",".",".",".",".",".","|",".",".",".",".",".",".",".",".","|"],[".",".",".",".",".",".",".",".","|",".",".",".",".",".",".",".",".","|",".",".",".",".",".",".",".",".","|",".",".",".",".",".",".",".",".","|"],[".",".",".",".",".",".",".",".","|",".",".",".",".",".",".",".",".","|",".",".",".",".",".",".",".",".","|",".",".",".",".",".",".",".",".","|"],[".",".",".",".",".",".",".",".","|",".",".",".",".",".",".",".",".","|",".",".",".",".",".",".",".",".","|",".",".",".",".",".",".",".",".","|"],[".",".",".",".",".",".",".",".","|",".",".",".",".",".",".",".",".","|",".",".",".",".",".",".",".",".","|",".",".",".",".",".",".",".",".","|"],[3,3,3,3,3,3,3,3,"|",4,4,4,4,4,4,4,4,"|",4,4,4,4,4,4,4,4,"|",1,1,1,1,1,1,1,1,"|"]],[[".",".",".",".",".",".",".",".","|",".",".",".",".",".",".",".",".","|",".",".",".",".",".",".",".",".","|",".",".",".",".",".",".",".",".","|"],[".",".",".",".",".",".",".",".","|",".",".",".",".",".",".",".",".","|",".",".",".",".",".",".",".",".","|",".",".",".",".",".",".",".",".","|"],[".",".",".",".",".",".",".",".","|",".",".",".",".",".",".",".",".","|",".",".",".",".",".",".",".",".","|",".",".",".",".",".",".",".",".","|"],[".",".",".",".",".",".",".",".","|",".",".",".",".",".",".",".",".","|",".",".",".",".",".",".",".",".","|",".",".",".",".",".",".",".",".","|"],[".",".",".",".",".",".",".",".","|",".",".",".",".",".",".",".",".","|",".",".",".",".",".",".",".",".","|",".",".",".",".",".",".",".",".","|"],[2,2,2,2,2,2,2,2,"|",2,2,2,2,2,2,2,2,"|",1,1,1,1,1,1,1,1,"|",1,1,1,1,1,1,1,1,"|"]],[[".","_","_","_","_","_","_","_","|","_","_","_","_",".","_","_","_","|",".","_","_","_","_","_","_","_","|","_","_","_","_","_","_",".",".","|"],[".","_","_","_","_","_","_","_","|","_","_","_","_",".","_","_","_","|",".","_","_","_","_","_","_","_","|","_","_","_","_","_","_",".",".","|"],[".","_","_","_","_","_","_","_","|","_","_","_","_",".","_","_","_","|",".","_","_","_","_","_","_","_","|","_","_","_","_","_","_",".",".","|"],[".","_","_","_","_","_","_","_","|","_","_","_","_",".","_","_","_","|",".","_","_","_","_","_","_","_","|","_","_","_","_","_","_",".",".","|"],[2,"_","_","_","_","_","_","_","|","_","_","_","_",4,"_","_","_","|",5,"_","_","_","_","_","_","_","|","_","_","_","_","_","_",4,2,"|"],[0,"_","_","_","_","_","_","_","|","_","_","_","_",2,"_","_","_","|",3,"_","_","_","_","_","_","_","|","_","_","_","_","_","_",2,0,"|"]],[[".","_","_","_","_","_","_","_","|","_","_","_","_",".","_","_","_","|",".","_","_","_","_","_","_",".","|",".","_","_","_",".","_","_","_","|"],[".","_","_","_","_","_","_","_","|","_","_","_","_",".","_","_","_","|",".","_","_","_","_","_","_",".","|",".","_","_","_",".","_","_","_","|"],[".","_","_","_","_","_","_","_","|","_","_","_","_",".","_","_","_","|",".","_","_","_","_","_","_",".","|",".","_","_","_",".","_","_","_","|"],[2,"_","_","_","_","_","_","_","|","_","_","_","_",4,"_","_","_","|",5,"_","_","_","_","_","_",4,"|",2,"_","_","_",7,"_","_","_","|"],[0,"_","_","_","_","_","_","_","|","_","_","_","_",2,"_","_","_","|",3,"_","_","_","_","_","_",2,"|",0,"_","_","_",5,"_","_","_","|"],[".","_","_","_","_","_","_","_","|","_","_","_","_",".","_","_","_","|",".","_","_","_","_","_","_",".","|",".","_","_","_",".","_","_","_","|"]],[[".","_",".","_",".",".",".","_","|",".","_",".","_",".",".",".","_","|",".","_",".",".",".","_",".","_","|",".","_",".",".","_","_",".",".","|"],[".","_",".","_",".",".",".","_","|",".","_",".","_",".",".",".","_","|",".","_",".",".",".","_",".","_","|",".","_",".",".","_","_",".",".","|"],[".","_",".","_",".",".",".","_","|",".","_",".","_",".",".",".","_","|",".","_",".",".",".","_",".","_","|",".","_",".",".","_","_",".",".","|"],[".","_",".","_",4,4,3,"_","|",".","_",".","_",".",".",".","_","|",".","_",4,4,3,"_",".","_","|",".","_",".",".","_","_",".",".","|"],[2,"_",5,"_",2,2,1,"_","|",4,"_",5,"_",3,3,2,"_","|",5,"_",2,2,1,"_",4,"_","|",5,"_",3,3,"_","_",3,3,"|"],[0,"_",3,"_",".",".",".","_","|",2,"_",3,"_",1,1,0,"_","|",3,"_",".",".",".","_",2,"_","|",3,"_",1,1,"_","_",1,1,"|"]],[[".",".",".",".",".",".",".",".","|",".",".",".",".",".",".",".",".","|",".",".",".",".",".",".",".",".","|",".",".",".",".",".",".",".",".","|"],[".",".",".",".",".",".",".",".","|",".",".",".",".",".",".",".",".","|",".",".",".",".",".",".",".",".","|",".",".",".",".",".",".",".",".","|"],[".",".",".",".",".",".",".",".","|",".",".",".",".",".",".",".",".","|",".",".",".",".",".",".",".",".","|",".",".",".",".",".",".",".",".","|"],[".",".",".",".",".",".",".",".","|",".",".",".",".",".",".",".",".","|",".",".",".",".",".",".",".",".","|",".",".",".",".",".",".",".",".","|"],[".",".",".",".",".",".",".",".","|",3,3,3,3,3,3,3,3,"|",".",".",".",".",3,3,3,3,"|",1,1,1,1,1,1,1,1,"|"],[0,0,0,0,0,0,0,0,"|",".",".",".",".",".",".",".",".","|",0,0,0,0,".",".",".",".","|",".",".",".",".",".",".",".",".","|"]],[[".",".",".",".",".",".",".",".","|",".",".",".",".",".",".",".",".","|",".",".",".",".",".",".",".",".","|",".",".",".",".",".",".",".",".","|"],[".",".",".",".",".",".",".",".","|",".",".",".",".",".",".",".",".","|",".",".",".",".",".",".",".",".","|",".",".",".",".",".",".",".",".","|"],[".",".",".",".",".",".",".",".","|",".",".",".",".",".",".",".",".","|",".",".",".",".",".",".",".",".","|",".",".",".",".",".",".",".",".","|"],[".",".",".",".",".",".",".",".","|",".",".",".",".",".",".",".",".","|",".",".",".",".",".",".",".",".","|",".",".",".",".",".",".",".",".","|"],[".",".",".",".",".",".",".",".","|",3,3,3,3,3,3,3,3,"|",".",".",".",".",3,3,3,3,"|",1,1,1,1,2,2,2,2,"|"],[0,0,0,0,0,0,0,0,"|",".",".",".",".",".",".",".",".","|",0,0,0,0,".",".",".",".","|",".",".",".",".",".",".",".",".","|"]],[[".",".",".",".",".",".",".",".","|",".",".",".",".",".",".",".",".","|",".",".",".",".",".",".",".",".","|",".",".",".",".",".",".",".",".","|"],[".",".",".",".",".",".",".",".","|",".",".",".",".",".",".",".",".","|",".",".",".",".",".",".",".",".","|",".",".",".",".",".",".",".",".","|"],[".",".",".",".",".",".",".",".","|",".",".",".",".",".",".",".",".","|",".",".",".",".",".",".",".",".","|",".",".",".",".",".",".",".",".","|"],[".",".",".",".",".",".",".",".","|",".",".",".",".",".",".",".",".","|",".",".",".",".",".",".",".",".","|",".",".",".",".",".",".",".",".","|"],[".",".",".",".",".",".",".",".","|",".",".",".",".",".",".",".",".","|",".",".",".",".",".",".",".",".","|",".",".",".",".",".",".",".",".","|"],[2,2,2,2,2,2,2,2,"|",2,2,2,2,2,2,2,2,"|",3,3,3,3,3,3,3,3,"|",3,3,3,3,3,3,3,3,"|"]],[[".",".",".",".",".",".",".",".","|",".",".",".",".",".",".",".",".","|",".",".",".",".",".",".",".",".","|",".",".",".",".",".",".",".",".","|"],[".",".",".",".",".",".",".",".","|",".",".",".",".",".",".",".",".","|",".",".",".",".",".",".",".",".","|",".",".",".",".",".",".",".",".","|"],[".",".",".",".",".",".",".",".","|",".",".",".",".",".",".",".",".","|",".",".",".",".",".",".",".",".","|",".",".",".",".",".",".",".",".","|"],[".",".",".",".",".",".",".",".","|",".",".",".",".",".",".",".",".","|",".",".",".",".",".",".",".",".","|",".",".",".",".",".",".",".",".","|"],[".",".",".",".",".",".",".",".","|",".",".",".",".",5,5,5,5,"|",3,3,3,3,5,5,5,5,"|",6,6,6,6,6,6,6,6,"|"],[2,2,2,2,2,2,2,2,"|",2,2,2,2,".",".",".",".","|",".",".",".",".",".",".",".",".","|",".",".",".",".",".",".",".",".","|"]],[[".","_",".",".",".","_",".",".","|",".",".",".","_",".",".",".","_","|"],[".","_",".",".",".","_",".",".","|",".",".",".","_",".",".",".","_","|"],[".","_",".",".",".","_",".",".","|",".",".",".","_",".",".",".","_","|"],[".","_",".",".",".","_",".",".","|",".",".",".","_",".",".",".","_","|"],[2,"_",2,2,3,"_",3,3,"|",3,5,3,"_",5,6,3,"_","|"],[0,"_",0,0,1,"_",1,1,"|",1,3,1,"_",3,4,1,"_","|"]],[[".","_","_","_","_","_",".",".","|",".","_","_","_","_","_",".",".","|",".","_","_","_","_","_",".",".","|",".","_","_","_","_","_",".",".","|"],[".","_","_","_","_","_",".",".","|",".","_","_","_","_","_",".",".","|",".","_","_","_","_","_",".",".","|",".","_","_","_","_","_",".",".","|"],[".","_","_","_","_","_",".",".","|",".","_","_","_","_","_",".",".","|",".","_","_","_","_","_",".",".","|",".","_","_","_","_","_",".",".","|"],[".","_","_","_","_","_",".",".","|",".","_","_","_","_","_",".",".","|",".","_","_","_","_","_",".",".","|",2,"_","_","_","_","_",0,2,"|"],[".","_","_","_","_","_",".",".","|",2,"_","_","_","_","_",0,2,"|",3,"_","_","_","_","_",2,3,"|",".","_","_","_","_","_",".",".","|"],[0,"_","_","_","_","_",2,3,"|",".","_","_","_","_","_",".",".","|",".","_","_","_","_","_",".",".","|",".","_","_","_","_","_",".",".","|"]],[[".","_","_","_","_","_",".",".","|",".","_","_","_","_","_",".",".","|",".","_","_","_","_","_",".",".","|",".","_","_","_","_","_",".",".","|"],[".","_","_","_","_","_",".",".","|",".","_","_","_","_","_",".",".","|",".","_","_","_","_","_",".",".","|",".","_","_","_","_","_",".",".","|"],[".","_","_","_","_","_",".",".","|",".","_","_","_","_","_",".",".","|",".","_","_","_","_","_",".",".","|",".","_","_","_","_","_",".",".","|"],[4,"_","_","_","_","_",7,9,"|",".","_","_","_","_","_",5,4,"|",2,"_","_","_","_","_",5,4,"|",2,"_","_","_","_","_",".",".","|"],[".","_","_","_","_","_",".",".","|",5,"_","_","_","_","_",".",".","|",".","_","_","_","_","_",".",".","|",".","_","_","_","_","_",".",".","|"],[".","_","_","_","_","_",".",".","|",".","_","_","_","_","_",".",".","|",".","_","_","_","_","_",".",".","|",".","_","_","_","_","_",3,2,"|"]],[[".","_","_","_","_","_","_","_","|",".","_","_","_","_","_",".",".","|",".","_","_","_","_","_","_","_","|",".","_","_","_","_","_",".",".","|"],[".","_","_","_","_","_","_","_","|",".","_","_","_","_","_",".",".","|",".","_","_","_","_","_","_","_","|",".","_","_","_","_","_",".",".","|"],[".","_","_","_","_","_","_","_","|",".","_","_","_","_","_",".",".","|",".","_","_","_","_","_","_","_","|",".","_","_","_","_","_",".",".","|"],[".","_","_","_","_","_","_","_","|",".","_","_","_","_","_",".",".","|",".","_","_","_","_","_","_","_","|",".","_","_","_","_","_",".",".","|"],[2,"_","_","_","_","_","_","_","|",".","_","_","_","_","_",".",".","|",".","_","_","_","_","_","_","_","|",".","_","_","_","_","_",2,3,"|"],[0,"_","_","_","_","_","_","_","|",0,"_","_","_","_","_",2,3,"|",5,"_","_","_","_","_","_","_","|",5,"_","_","_","_","_",".",".","|"]],[[".","_","_","_","_","_","_","_","|",".","_","_","_","_","_",".",".","|",".","_","_","_","_","_",".",".","|",".","_","_","_","_","_",".",".","|"],[".","_","_","_","_","_","_","_","|",".","_","_","_","_","_",".",".","|",".","_","_","_","_","_",".",".","|",".","_","_","_","_","_",".",".","|"],[".","_","_","_","_","_","_","_","|",".","_","_","_","_","_",".",".","|",".","_","_","_","_","_",".",".","|",".","_","_","_","_","_",".",".","|"],[".","_","_","_","_","_","_","_","|",".","_","_","_","_","_",".",".","|",".","_","_","_","_","_",".",".","|",".","_","_","_","_","_",".",".","|"],[5,"_","_","_","_","_","_","_","|",5,"_","_","_","_","_",".",".","|",3,"_","_","_","_","_",".",".","|",2,"_","_","_","_","_",".",".","|"],[".","_","_","_","_","_","_","_","|",".","_","_","_","_","_",3,2,"|",".","_","_","_","_","_",3,2,"|",".","_","_","_","_","_",3,2,"|"]],[[".",".",".","_","_",".",".",".","|",".",".",".",".",".",".",".",".","|",".",".",".","_","_",".",".",".","|",".",".",".",".",".",".",".",".","|"],[".",".",".","_","_",".",".",".","|",".",".",".",".",".",".",".",".","|",".",".",".","_","_",".",".",".","|",".",".",".",".",".",".",".",".","|"],[".",".",".","_","_",".",".",".","|",".",".",".",".",".",".",".",".","|",".",".",".","_","_",".",".",".","|",".",".",".",".",".",".",".",".","|"],[".",9,9,"_","_",7,9,10,"|",7,".",7,9,".",".",".",".","|",".",9,9,"_","_",7,9,10,"|",7,".",7,9,".",".",".",".","|"],[7,".",".","_","_",".",".",".","|",".",10,".",".",10,9,10,5,"|",7,".",".","_","_",".",".",".","|",".",10,".",".",10,9,10,5,"|"],[".",".",".","_","_",".",".",".","|",".",".",".",".",".",".",".",".","|",".",".",".","_","_",".",".",".","|",".",".",".",".",".",".",".",".","|"]],[[".",".",".","_","_",".",".",".","|",".",".",".","_","_",".",".",".","|",".",".",".","_","_",".",".",".",".",".",".",".",".","|",".",".",".",".",".",".",".",".",".",".","|"],[".",".",".","_","_",".",".",".","|",".",".",".","_","_",".",".",".","|",".",".",".","_","_",".",".",".",".",".",".",".",".","|",".",".",".",".",".",".",".",".",".",".","|"],[".",".",".","_","_",".",".",".","|",".",".",".","_","_",".",".",".","|",".",".",".","_","_",".",".",".",".",".",".",".",".","|",".",".",".",".",".",".",".",".",".",".","|"],[".",7,7,"_","_",".",".",".","|",".",5,5,"_","_",".",".",".","|",".",4,4,"_","_",5,4,"h",5,"p",4,"p",0,"|",2,"/",4,4,"/",5,5,4,2,0,"|"],[3,".",".","_","_",3,2,3,"|",2,".",".","_","_",2,0,2,"|",0,".",".","_","_",".",".",".",".",".",".",".",".","|",".",".",".",".",".",".",".",".",".",".","|"],[".",".",".","_","_",".",".",".","|",".",".",".","_","_",".",".",".","|",".",".",".","_","_",".",".",".",".",".",".",".",".","|",".",".",".",".",".",".",".",".",".",".","|"]],[[".",".",".","_","_",".",".",".","|",".",".",".",".",".",".",".",".","|",".",".",".","_","_",".",".",".","|",".",".",".",".",".",".",".",".","|"],[".",".",".","_","_",".",".",".","|",".",".",".",".",".",".",".",".","|",".",".",".","_","_",".",".",".","|",".",".",".",".",".",".",".",".","|"],[".",".",".","_","_",".",".",".","|",".",".",".",".",".",".",".",".","|",".",".",".","_","_",".",".",".","|",".",".",".",".",".",".",".",".","|"],[".",".",".","_","_",".",".",".","|",".",".",".",".",".",".",".",".","|",".",".",".","_","_",".",".",".","|",".",".",".",".",".",".",".",".","|"],[".",2,2,"_","_",0,2,3,"|",0,".",0,2,".",".",".",5,"|",".",2,2,"_","_",0,2,3,"|",0,".",0,2,".",".",".",5,"|"],[0,".",".","_","_",".",".",".","|",".",3,".",".",3,2,3,".","|",0,".",".","_","_",".",".",".","|",".",3,".",".",3,2,3,".","|"]],[[".",".",".","_","_",".",".",".","|",".",".",".","_","_",".",".",".","|",".",".",".","_","_",".",".",".",".",".",".",".",".","|",".",".",".",".",".",".",".",".",".",".","|"],[".",".",".","_","_",".",".",".","|",".",".",".","_","_",".",".",".","|",".",".",".","_","_",".",".",".",".",".",".",".",".","|",".",".",".",".",".",".",".",".",".",".","|"],[".",".",".","_","_",".",".",".","|",".",".",".","_","_",".",".",".","|",".",".",".","_","_",".",".",".",".",".",".",".",".","|",".",".",".",".",".",".",".",".",".",".","|"],[".",10,10,"_","_",".",".",".","|",".",9,9,"_","_",".",".",".","|",".",7,7,"_","_",9,7,"h",9,"p",7,"\\",4,"|",5,"/",7,7,"/",9,9,7,5,4,"|"],[7,".",".","_","_",7,5,7,"|",5,".",".","_","_",5,3,5,"|",3,".",".","_","_",".",".",".",".",".",".",".",".","|",".",".",".",".",".",".",".",".",".",".","|"],[".",".",".","_","_",".",".",".","|",".",".",".","_","_",".",".",".","|",".",".",".","_","_",".",".",".",".",".",".",".",".","|",".",".",".",".",".",".",".",".",".",".","|"]],[[".","_","_","_","_","_","_","_","|",".","_","_","_","_","_","_","_","|",".","_","_","_","_","_","_","_","|",".","_","_","_","_","_","_","_","|"],[".","_","_","_","_","_","_","_","|",".","_","_","_","_","_","_","_","|",".","_","_","_","_","_","_","_","|",".","_","_","_","_","_","_","_","|"],[".","_","_","_","_","_","_","_","|",".","_","_","_","_","_","_","_","|",".","_","_","_","_","_","_","_","|",".","_","_","_","_","_","_","_","|"],[".","_","_","_","_","_","_","_","|",".","_","_","_","_","_","_","_","|",".","_","_","_","_","_","_","_","|",".","_","_","_","_","_","_","_","|"],[2,"_","_","_","_","_","_","_","|",5,"_","_","_","_","_","_","_","|",2,"_","_","_","_","_","_","_","|",1,"_","_","_","_","_","_","_","|"],[0,"_","_","_","_","_","_","_","|",3,"_","_","_","_","_","_","_","|",2,"_","_","_","_","_","_","_","|",1,"_","_","_","_","_","_","_","|"]],[[".",".",".",".",".",".",".",".","|",".",".",".",".",".",".",".",".","|",".",".",".",".",".",".",".",".","|",".",".",".",".",".",".",".",".","|"],[".",".",".",".",".",".",".",".","|",".",".",".",".",".",".",".",".","|",".",".",".",".",".",".",".",".","|",".",".",".",".",".",".",".",".","|"],[".",".",".",".",".",".",".",".","|",".",".",".",".",".",".",".",".","|",".",".",".",".",".",".",".",".","|",".",".",".",".",".",".",".",".","|"],[".",".",".",".",".",".",".",".","|",".",".",".",".",".",".",".",".","|",".",".",".",".",".",".",".",".","|",".",".",".",".",".",".",".",".","|"],[".",".",".",".",".",".",".",".","|",".",".",".",".",".",".",".",".","|",".",".",".",".",".",".",".",".","|",".",".",".",".",".",".",".",".","|"],[0,0,0,0,0,0,0,0,"|",1,1,1,1,1,1,1,1,"|",3,3,3,3,3,3,3,3,"|",4,4,4,4,4,4,4,4,"|"]],[[".",".",".",".",".",".",".",".","|",".",".",".",".",".",".",".",".","|",".",".",".",".",".",".",".",".","|",".",".",".",".",".",".",".",".","|"],[".",".",".",".",".",".",".",".","|",".",".",".",".",".",".",".",".","|",".",".",".",".",".",".",".",".","|",".",".",".",".",".",".",".",".","|"],[".",".",".",".",".",".",".",".","|",".",".",".",".",".",".",".",".","|",".",".",".",".",".",".",".",".","|",".",".",".",".",".",".",".",".","|"],[".",".",".",".",".",".",".",".","|",".",".",".",".",".",".",".",".","|",".",".",".",".",".",".",".",".","|",".",".",".",".",".",".",".",".","|"],[".",".",".",".",".",".",".",".","|",".",".",".",".",".",".",".",".","|",1,1,2,2,1,1,2,2,"|",4,4,5,5,4,4,5,5,"|"],[0,0,0,0,0,0,0,0,"|",1,1,1,1,1,1,1,1,"|",".",".",".",".",".",".",".",".","|",".",".",".",".",".",".",".",".","|"]],[[".",".",".",".",".",".",".",".","|",".",".",".",".",".",".",".",".","|",".",".",".",".",".",".",".",".","|",".",".",".",".",".",".",".",".","|"],[".",".",".",".",".",".",".",".","|",".",".",".",".",".",".",".",".","|",".",".",".",".",".",".",".",".","|",".",".",".",".",".",".",".",".","|"],[".",".",".",".",".",".",".",".","|",".",".",".",".",".",".",".",".","|",".",".",".",".",".",".",".",".","|",".",".",".",".",".",".",".",".","|"],[".",".",".",".",".",".",".",".","|",".",".",".",".",".",".",".",".","|",".",".",".",".",".",".",".",".","|",".",".",".",".",".",".",".",".","|"],[".",".",".",".",".",".",".",".","|",".",".",".",".",".",".",".",".","|",".",".",".",".",".",".",".",".","|",".",".",".",".",".",".",".",".","|"],[0,0,0,0,0,0,0,0,"|",1,1,1,1,1,1,1,1,"|",3,3,3,3,3,3,3,3,"|",4,4,4,4,4,4,4,4,"|"]],[[".",".",".",".",".",".",".",".","|",".",".",".",".",".",".",".",".","|",".",".",".",".",".",".",".",".","|",".",".",".",".",".",".",".",".","|"],[".",".",".",".",".",".",".",".","|",".",".",".",".",".",".",".",".","|",".",".",".",".",".",".",".",".","|",".",".",".",".",".",".",".",".","|"],[".",".",".",".",".",".",".",".","|",".",".",".",".",".",".",".",".","|",".",".",".",".",".",".",".",".","|",".",".",".",".",".",".",".",".","|"],[".",".",".",".",".",".",".",".","|",".",".",".",".",".",".",".",".","|",".",".",".",".",".",".",".",".","|",".",".",".",".",".",".",".",".","|"],[".",".",".",".",".",".",".",".","|",".",".",".",".",".",".",".",".","|",4,4,5,5,4,4,5,5,"|",7,7,8,8,7,7,8,8,"|"],[0,0,0,0,0,0,0,0,"|",1,1,1,1,1,1,1,1,"|",".",".",".",".",".",".",".",".","|",".",".",".",".",".",".",".",".","|"]]],"numberofstrings":6,"notes":["E","B","G","D","A","E","B"],"capo":0,"stringnotes":["E4","B3","G3","D3","A2","E2"],"comments":["Stave 1:","Stave 2:","Stave 3:","Stave 4:","Stave 5:","Stave 6:","Stave 7:","Stave 8:","Stave 9:","Stave 10:","Stave 11:",null,"Stave 13:","Stave 14:","Stave 15:","Stave 16:","Stave 17:","Stave 18:","Stave 19:","Stave 20:","Stave 21:","Stave 22:","Stave 23:","Stave 24:","Stave 25:"],"timing":[["W","W","W","W","W","W","W","W",null,"W","W","W","W","W","W","W","W",null,"W","W","W","W","W","W","W","W",null,"W","W","W","W","W","W","W","W"],["W","W","W","W","W","W","W","W",null,"W","W","W","W","W","W","W","W",null,"W","W","W","W","W","W","W","W",null,"W","W","W","W","W","W","W","W"],["W","W","W","W","W","W","W","W",null,"W","W","W","W","W","W","W","W",null,"W","W","W","W","W","W","W","W",null,"W","W","W","W","W","W","W","W"],["W","W","W","W","W","W","W","W",null,"W","W","W","W","W","W","W","W",null,"W","W","W","W","W","W","W","W",null,"W","W","W","W","W","W","W","W"],["W",null,null,null,null,null,null,null,null,null,null,null,null,"W",null,null,null,null,"W",null,null,null,null,null,null,null,null,"W",null,null,null,null,null,"W","W"],["W",null,null,null,null,null,null,null,null,null,null,null,null,"W",null,null,null,null,"W",null,null,null,null,null,null,"W",null,"W",null,null,null,"W"],["W",null,"W",null,"W","W","W",null,null,"W",null,"W",null,"W","W","W",null,null,"W",null,"W","W","W",null,"W",null,null,"W",null,"W","W",null,null,"W","W"],["W","W","W","W","W","W","W","W",null,"W","W","W","W","W","W","W","W",null,"W","W","W","W","W","W","W","W",null,"W","W","W","W","W","W","W","W"],["W","W","W","W","W","W","W","W",null,"W","W","W","W","W","W","W","W",null,"W","W","W","W","W","W","W","W",null,"W","W","W","W","W","W","W","W"],["W","W","W","W","W","W","W","W",null,"W","W","W","W","W","W","W","W",null,"W","W","W","W","W","W","W","W",null,"W","W","W","W","W","W","W","W"],["W","W","W","W","W","W","W","W",null,"W","W","W","W","W","W","W","W",null,"W","W","W","W","W","W","W","W",null,"W","W","W","W","W","W","W","W"],null,["W",null,null,null,null,null,"W","W",null,"W",null,null,null,null,null,"W","W",null,"W",null,null,null,null,null,"W","W",null,"W",null,null,null,null,null,"W","W",null,"W",null,null,null,null,null,"W","W"],["W",null,null,null,null,null,"W","W",null,"W",null,null,null,null,null,"W","W",null,"W",null,null,null,null,null,"W","W",null,"W",null,null,null,null,null,"W","W"],["W",null,null,null,null,null,null,null,null,"W",null,null,null,null,null,"W","W",null,"W",null,null,null,null,null,null,null,null,"W",null,null,null,null,null,"W","W"],["W",null,null,null,null,null,null,null,null,"W",null,null,null,null,null,"W","W",null,"W",null,null,null,null,null,"W","W",null,"W",null,null,null,null,null,"W","W"],["W","W","W",null,null,"W","W","W",null,"W","W","W","W","W","W","W","W",null,"W","W","W",null,null,"W","W","W",null,"W","W","W","W","W","W","W","W"],["W","W","W",null,null,"W","W","W",null,"W","W","W",null,null,"W","W","W",null,"W","W","W",null,null,"W","W",null,"W",null,"W",null,"W",null,"W",null,"W","W",null,"W","W","W","W","W"],["W","W","W",null,null,"W","W","W",null,"W","W","W","W","W","W","W","W",null,"W","W","W",null,null,"W","W","W",null,"W","W","W","W","W","W","W","W"],["W","W","W",null,null,"W","W","W",null,"W","W","W",null,null,"W","W","W",null,"W","W","W",null,null,"W","W",null,"W",null,"W",null,"W",null,"W",null,"W","W",null,"W","W","W","W","W"],["W",null,null,null,null,null,null,null,null,"W",null,null,null,null,null,null,null,null,"W",null,null,null,null,null,null,null,null,"W"],["W","W","W","W","W","W","W","W",null,"W","W","W","W","W","W","W","W",null,"W","W","W","W","W","W","W","W",null,"W","W","W","W","W","W","W","W"],["W","W","W","W","W","W","W","W",null,"W","W","W","W","W","W","W","W",null,"W","W","W","W","W","W","W","W",null,"W","W","W","W","W","W","W","W"],["W","W","W","W","W","W","W","W",null,"W","W","W","W","W","W","W","W",null,"W","W","W","W","W","W","W","W",null,"W","W","W","W","W","W","W","W"],["W","W","W","W","W","W","W","W",null,"W","W","W","W","W","W","W","W","W","W","W","W","W","W","W","W","W",null,"W","W","W","W","W","W","W","W"]],"timingvisible":false,"tabcounter":36,"stave":24,"totalstaves":25,"instrument":"6guitar","selectedtuning":"6_standard","version":"13"}

Member for

1 year 1 month
Submitted by tatter75 on Fri, 2021-02-26 07:29