Sound will begin in 5 seconds

So You're Saying There's A Chance… Part 2

01234567891011121314151617181920212223
E
B
G
D
A
E
B
0 1 2 3 4 5 6 7 8 9 10 11 12 13 14 15 16 17 18 19 20 21 22 23
Song Science #1: How Pros Use 6 Chords to Write Hit Songs
(/) Slide Up  (\) Slide Down  (h) Hammer On  (p) Pull Off  (b) Bend (r) Release (v) Vibrato

Stave 1:

E|-----------------
B|-----------------
G|-----------------
D|--4--5--5--------
A|-----------7--5--
E|-----------------

Stave 2:

E|----------------------------------------------------------------------------------------------------
B|--------------10--------------------------10------------------12--10--------------------------------
G|------12----------12------12------11----------11------11------------------12--11--9--11--12--14-----
D|--12------12----------12------12------12----------12------12----------12----------------------------
A|----------------------------------------------------------------------------------------------------
E|----------------------------------------------------------------------------------------------------

Stave 3:

E|------------------------------------------------------------
B|------------------------------------------------------------
G|--12--12--12--12--12--12--12--12--12--11--10--9--7--6--6b7--
D|-------------------------------------------------------0----
A|------------------------------------------------------------
E|------------------------------------------------------------

Stave 4:

E|--------------------------------------------------------
B|--------------------------------------------------------
G|--------------------------------------------------------
D|--------------5--4--3--3--4--5--------------------------
A|--------------5--4--3--3--4--5--4--------------------4--
E|--0--0--0--0--5--4--3--3--4--5-----5--4--3--3--4--5-----

Stave 5:

E|--
B|--
G|--
D|--
A|--
E|--

Stave 6:

E|-----------------------------------------------------------
B|-----------------------------------------------------------
G|-----------------------------------------------------------
D|-----------------------5--5--4--7--4-----------------------
A|--2--2--0--------------5--5-----------7--5--2--0-----------
E|-----------4--0--2--5--5--5-----------------------0--2--5--

Stave 7:

E|-----------------------------------------------------------------
B|--------------------------------------7--5-----------------------
G|-----------------------------------------------6--7--6-----------
D|--5--2--9--9--7--7--4--5--2--9--7--9--------7-----------9--7--5--
A|--5--2--9--9--7--5--4--5--2--9--7--9--------------------------5--
E|--5--2--9--9--7-----4--5--2--9--7--9--------------------------5--

Stave 8:

E|----------------------------------------------------------------------------
B|----------------------------------------------------------------------------
G|-----------------7--6-------------------------------------------------------
D|--4--4--5--4-----------9--7--5--4--12--12--12--12--12--12--12--12--9--7--5--
A|--------------5----------------------------------------------------------5--
E|-------------------------------------------------------------------------5--

http://www.guitartabcreator.com
Guitar Tab Creator is intended to store guitar tab created through the tool. It currently does not support in-line text editing. Any text you place in here will be lost. If you need to comment on your tab, please use the "Tab Notes" section located below.