Sound will begin in 5 seconds

So You're Saying There's A Chance...

01234567891011121314151617181920212223
E
B
G
D
A
E
B
0 1 2 3 4 5 6 7 8 9 10 11 12 13 14 15 16 17 18 19 20 21 22 23
Song Science #1: How Pros Use 6 Chords to Write Hit Songs
(/) Slide Up  (\) Slide Down  (h) Hammer On  (p) Pull Off  (b) Bend (r) Release (v) Vibrato

Stave 1:

E|-----------------------------------------------------------------------------------------------------
B|-----------------------------------------------------------------------------------------------------
G|--------------------------------------------------------2--2--4--2-----------------------------------
D|--0--3--4--3--4-----------------------------------4--7--4--4--5--4--5--5--4--------------------------
A|--0--------------------2-----------0--2--5--5--7--------------------5--5-----7--5--2--5--2--0--------
E|--0--------------0--2-----2--4--5-----------------------------------5--5-----------------------4--5--

Stave 2:

E|--------------------------------------------------------------------------------------------------
B|--------------------------------------------------------------------------------------------------
G|--12--12--11--11--11--------------------------------------12--12--11--11--11----------------------
D|----------------------12-------5----------------------------------------------5--7--9--7----------
A|----------------------12----2-----2--0----------------------------------------5--7--9--5--7--7/9--
E|----------------------12\0--------------4--7--0--2--4--7----------------------5--7--9-------------

Stave 3:

E|--------------------------------------------------------------------------------------
B|--------------------------------------------------------------------------------------
G|--------------------------------------------------------------------------------------
D|-----------------------------------------------------------5--------4-----0-----------
A|--10----10--10--10--10--10--10--10--9--9--9--9--9--9--9\2-----2--0-----0--0-----------
E|--0-----0---0---0---0---0---0---0---0--0--0--0--0--0--0-------------------0--2--4--7--

Stave 4:

E|-----------------------------------------------------------------------------------
B|-----------------------------------------------------------------------------------
G|-----------------------------------------------------------------------------------
D|-----------------------5--4--------4--5--4--5--------------------------2-----------
A|-----5--7--5--------5--------0--0--------------0--0--0--0--0--0--2--5-----4--0-----
E|--4-----------4--5-----------0--0--------------0--0--0--0--0--0--------------------

http://www.guitartabcreator.com
Guitar Tab Creator is intended to store guitar tab created through the tool. It currently does not support in-line text editing. Any text you place in here will be lost. If you need to comment on your tab, please use the "Tab Notes" section located below.