Sound will begin in 5 seconds

Woodtick2 Treble

01234567891011121314151617181920212223
E
B
G
D
A
E
B
0 1 2 3 4 5 6 7 8 9 10 11 12 13 14 15 16 17 18 19 20 21 22 23
Song Science #1: How Pros Use 6 Chords to Write Hit Songs
(/) Slide Up  (\) Slide Down  (h) Hammer On  (p) Pull Off  (b) Bend (r) Release (v) Vibrato

Stave 1:

E|----------------0--2--3--0--7----3--8--7--5--7--8--5--7--3--5----7--5--3--7--5--3--2--5--3--0--0--
B|--0--4/5--5--4------------------------------------------------------------------------------------
G|--------------------------------------------------------------------------------------------------
D|--------------------------------------------------------------------------------------------------
A|--------------------------------------------------------------------------------------------------
E|--------------------------------------------------------------------------------------------------

Stave 2:

E|--3--5--5--7--5--3--2--3--5--5--7--5----5--5--7--5--3--2--0--2----------5--7--8--10--12--8--10--
B|----------------------------------------------------------------3--3----------------------------
G|------------------------------------------------------------------------------------------------
D|------------------------------------------------------------------------------------------------
A|------------------------------------------------------------------------------------------------
E|------------------------------------------------------------------------------------------------

Stave 3:

E|--8--7--10--8--7--5--8--7----3--5--7--5--3--7--5--7--8--7--5--2-------7--5--3--5--7--3--7--8--10--
B|-----------------------------------------------------------------3--------------------------------
G|--------------------------------------------------------------------------------------------------
D|--------------------------------------------------------------------------------------------------
A|--------------------------------------------------------------------------------------------------
E|--------------------------------------------------------------------------------------------------

Stave 4:

E|--7--8--10--12--8--15----14--12--10--8--7--10--8--7--5--8--7--3--0----0--2--3--5--7--3--5--3--2--
B|-------------------------------------------------------------------------------------------------
G|-------------------------------------------------------------------------------------------------
D|-------------------------------------------------------------------------------------------------
A|-------------------------------------------------------------------------------------------------
E|-------------------------------------------------------------------------------------------------

Stave 5:

E|--5--3--------------------0-----0--2--3--3--2--3--0--0-----0-----0--2--3--2--0--3-----------------
B|--------3--------------0-----4--------------------------3-----4--------------------3--1--0--------
G|-----------0--------------------------------------------------------------------------------2-----
D|--------------------------------------------------------------------------------------------------
A|--------------------------------------------------------------------------------------------------
E|----------------3---------------------------------------------------------------------------------

Stave 6:

E|-----------------0--2-----0--2--3--2--0--2--3--5----3--2--0--3--2--0-----2--0-------------------
B|--0--1--3--0--3--------3----------------------------------------------3--------3--3-------0--1--
G|---------------------------------------------------------------------------------------2--------
D|------------------------------------------------------------------------------------------------
A|------------------------------------------------------------------------------------------------
E|------------------------------------------------------------------------------------------------

Stave 7:

E|-----0------------------------------------------------------------------------------------------
B|--3-----1--3--1--0--3--1--0-----1--0----------0--------0-----0--1--0-------------0-----------0--
G|-----------------------------2----------0--2-----2--0-----2-----------2-------------2--0--2-----
D|-------------------------------------------------------------------------4--0-------------------
A|------------------------------------------------------------------------------------------------
E|------------------------------------------------------------------------------------------------

Stave 8:

E|-----------------------0-----3----3--2--0-----------------------------------------------------------
B|-----0--1--3--0--1--3-----1----------------3--1--0--3--1--0-----1--0--------------------------------
G|--0----------------------------------------------------------2--------0-----------0--2--4--0--2--0--
D|-------------------------------------------------------------------------2--2--4--------------------
A|----------------------------------------------------------------------------------------------------
E|----------------------------------------------------------------------------------------------------

Stave 9:

E|------------------------0--0--0--0--2--3--3--2--0--0--0--0-----------------------------0--2--3--0--
B|---------------------0--------------------------------------3--1--0--0--0-----0--3--3--------------
G|-----2--0------------------------------------------------------------------2-----------------------
D|--4--------0---------------------------------------------------------------------------------------
A|---------------------------------------------------------------------------------------------------
E|--------------3------------------------------------------------------------------------------------

Stave 10:

E|--0----
B|-------
G|-------
D|-------
A|-------
E|-------

http://www.guitartabcreator.com
Guitar Tab Creator is intended to store guitar tab created through the tool. It currently does not support in-line text editing. Any text you place in here will be lost. If you need to comment on your tab, please use the "Tab Notes" section located below.