Geffen Bass Riff 12/3

01234567891011121314151617181920212223
E
B
G
D
A
E
B
0 1 2 3 4 5 6 7 8 9 10 11 12 13 14 15 16 17 18 19 20 21 22 23
(/) Slide Up  (\) Slide Down  (h) Hammer On  (p) Pull Off  (b) Bend (r) Release (v) Vibrato

Stave 1:

G|--9------9--10--10--9--------
D|-----10----------------9--9--
A|-----------------------------
E|-----------------------------

Stave 2:

G|--9--9----------9--9--10--10--10--10--9--9--------------
D|--------10--10------------------------------9--9--9--9--
A|--------------------------------------------------------
E|--------------------------------------------------------

Stave 3:

G|--------------------0--------
D|--2--2-----2-----2-----------
A|--------------3--------------
E|--------------------------3--

							http://www.guitartabcreator.com
Chords

Instruments
{"strings":[[[9,".",9,10,10,9,".","."],[".",10,".",".",".",".",9,9],[".",".",".",".",".",".",".","."],[".",".",".",".",".",".",".","."]],[[9,9,".",".",9,9,10,10,10,10,9,9,".",".",".","."],[".",".",10,10,".",".",".",".",".",".",".",".",9,9,9,9],[".",".",".",".",".",".",".",".",".",".",".",".",".",".",".","."],[".",".",".",".",".",".",".",".",".",".",".",".",".",".",".","."]],[[".",".","_",".",".",".",0,"_","."],[2,2,"_",2,".",2,".","_","."],[".",".","_",".",3,".",".","_","."],[".",".","_",".",".",".",".","_",3]]],"numberofstrings":4,"notes":["G","D","A","E"],"capo":0,"stringnotes":["G2","D2","A1","E1"],"comments":["Stave 1:","Stave 2:","Stave 3:"],"timing":[["W","W","W","W","W","W","W","W","W","W","W","W","W","W","W","W"],["W","W","W","W","W","W","W","W","W","W","W","W","W","W","W","W"],["W","W",null,"W","W","W","W",null,"W"]],"timingvisible":false,"tabcounter":9,"stave":2,"totalstaves":3,"instrument":"4bass","selectedtuning":"4bass","version":"13"}

Member for

6 months 3 weeks
Submitted by T Mac on Thu, 2020-12-03 16:34