Undertale thing

Chords

01234567891011121314151617181920212223
E
B
G
D
A
E
B
0 1 2 3 4 5 6 7 8 9 10 11 12 13 14 15 16 17 18 19 20 21 22 23
(/) Slide Up  (\) Slide Down  (h) Hammer On  (p) Pull Off  (b) Bend (r) Release (v) Vibrato

Capo Fret 3

Stave 1: the thing i made that sounds like it

E|--------0--------------------------0--------------------------0--------------------------------|-----|--
B|-----------1--3--1--------------------1--3--1--------------------0--3--0-----------3--1--0-----|-----|--
G|-----0--------------0-----------2--------------2-----------0--------------0-----------------0--|-----|--
D|-----------------------2--------------------------2--------------------------2-----------------|-----|--
A|--3--------------------------0--------------------------2--------------------------------------|--2--|--
E|-----------------------------------------------------------------------------------------------|-----|--

Stave 2: undertale from undertale

E|-----0-----------------------------------------------0--------------------------0--------------|-----|--
B|-----------1--0--0--1-----------1-----0--0--1--------------1--0--0--1--------------1--0--1--3--|-----|--
G|--------0--------------------0-----0--------------------0--------------------0-----------------|-----|--
D|-----------------------------------------------------------------------------------------------|-----|--
A|--3-----------------------3-----------------------3-----------------------3--------------------|--2--|--
E|-----------------------------------------------------------------------------------------------|-----|--

							http://www.guitartabcreator.com
Instruments
{"strings":[[[".",".",0,".",".",".",".",".","_",".",".",0,".",".",".",".",".","_",".",".",0,".",".",".",".",".","_",".",".",".",".","|",".","|"],[".",".",".",1,3,1,".",".","_",".",".",".",1,3,1,".",".","_",".",".",".",0,3,0,".",".","_",3,1,0,".","|",".","|"],[".",0,".",".",".",".",0,".","_",".",2,".",".",".",".",2,".","_",".",0,".",".",".",".",0,".","_",".",".",".",0,"|",".","|"],[".",".",".",".",".",".",".",2,"_",".",".",".",".",".",".",".",2,"_",".",".",".",".",".",".",".",2,"_",".",".",".",".","|",".","|"],[3,".",".",".",".",".",".",".","_",0,".",".",".",".",".",".",".","_",2,".",".",".",".",".",".",".","_",".",".",".",".","|",2,"|"],[".",".",".",".",".",".",".",".","_",".",".",".",".",".",".",".",".","_",".",".",".",".",".",".",".",".","_",".",".",".",".","|",".","|"]],[[".",0,".",".",".",".",".","_",".",".",".",".",".",".",".",".",".",0,".",".",".",".",".",".",".",".",0,".",".",".",".","|",".","|"],[".",".",".",1,0,0,1,"_",".",".",1,".",0,0,1,".",".",".",".",1,0,0,1,".",".",".",".",1,0,1,3,"|",".","|"],[".",".",0,".",".",".",".","_",".",0,".",0,".",".",".",".",".",".",0,".",".",".",".",".",".",0,".",".",".",".",".","|",".","|"],[".",".",".",".",".",".",".","_",".",".",".",".",".",".",".",".",".",".",".",".",".",".",".",".",".",".",".",".",".",".",".","|",".","|"],[3,".",".",".",".",".",".","_",3,".",".",".",".",".",".",".",3,".",".",".",".",".",".",".",3,".",".",".",".",".",".","|",2,"|"],[".",".",".",".",".",".",".","_",".",".",".",".",".",".",".",".",".",".",".",".",".",".",".",".",".",".",".",".",".",".",".","|",".","|"]]],"numberofstrings":6,"notes":["E","B","G","D","A","E","B"],"capo":"3","stringnotes":["E4","B3","G3","D3","A2","E2"],"comments":["Stave 1: the thing i made that sounds like it","Stave 2: undertale from undertale"],"timing":[["W","W","W","W","W","W","W","W","W","W","W","W","W","W","W","W","W",null,"W","W","W","W","W","W","W","W",null,"W","W","W","W",null,"W"],["W","W","W","W","W","W","W",null,"W","W","W","W","W","W","W","W","W","W","W","W","W","W","W","W","W","W","W","W","W",null,"W"]],"timingvisible":false,"tabcounter":34,"stave":1,"totalstaves":2,"instrument":"6guitar","selectedtuning":"6_standard","version":"13"}

Member for

9 months 3 weeks
Submitted by Super Signal on Sat, 2020-10-24 22:03