Ukulele2

Chords

01234567891011121314151617181920212223
E
B
G
D
A
E
B
0 1 2 3 4 5 6 7 8 9 10 11 12 13 14 15 16 17 18 19 20 21 22 23
(/) Slide Up  (\) Slide Down  (h) Hammer On  (p) Pull Off  (b) Bend (r) Release (v) Vibrato

Capo Fret 1

Stave 1: x2

A|-----------------------------------------------------------------------------------------------------------------------
E|--3-----------1-----------0-----------0-----------3-----------1-----------0-----------0--------0-----0--------3--------
G|--------2-----------0-----------0-----------0-----------2-----------0-----------0--------0--------0-----0--2--------0--
G|-----0-----0-----2-----2-----0-----------0-----0-----0-----0-----2-----2-----0-----------------------------------------

Stave 2:

A|--2--2-----------0--------0--------0--------0-----|--------|-----0--------------------
E|--3-----3-----1-----1--------1--0-----0--------0--|--------|--------0-----------------
G|--2--------2--0--------0--------0--------0--------|--2--x--|--1--------1--1--1--1--1--
G|--------------2-----------------2-----------------|--------|--2-----------2--2--2--2--

Stave 3: start a fourth repeat and then go to an A major cord and strum that 9 times as well then go back to and F major chord and strum that once

A|--2--|--------|--0--|-----|--0--|-----|-----|--
E|--3--|--------|--1--|-----|--0--|-----|-----|--
G|--2--|--4--x--|--0--|--4--|--0--|--9--|--3--|--
G|--0--|--------|--2--|-----|--2--|-----|-----|--

							http://www.guitartabcreator.com
Instruments
{"strings":[[[".",".",".",".",".",".",".",".",".",".",".","_",".",".",".",".",".",".",".",".",".",".",".",".",".",".",".","_",".",".","_",".",".",".",".",".",".","_","."],[3,".",".",".",1,".",".",".",0,".",".","_",0,".",".",".",3,".",".",".",1,".",".",".",0,".",".","_",0,".","_",0,".",0,".",".",3,"_","."],[".",".",2,".",".",".",0,".",".",".",0,"_",".",".",0,".",".",".",2,".",".",".",0,".",".",".",0,"_",".",0,"_",".",0,".",0,2,".","_",0],[".",0,".",0,".",2,".",2,".",0,".","_",".",0,".",0,".",0,".",0,".",2,".",2,".",0,".","_",".",".","_",".",".",".",".",".",".","_","."]],[[2,2,".",".",".",0,".",".",0,".",".",0,".",".",0,".","|",".",".","|",".",0,".",".",".",".",".","."],[3,".",3,".",1,".",1,".",".",1,0,".",0,".",".",0,"|",".",".","|",".",".",0,".",".",".",".","."],[2,".",".",2,0,".",".",0,".",".",0,".",".",0,".",".","|",2,"x","|",1,".",".",1,1,1,1,1],[".",".",".",".",2,".",".",".",".",".",2,".",".",".",".",".","|",".",".","|",2,".",".",".",2,2,2,2]],[[2,"|",".",".",null,null,null,null,null,null,null,null,null,null,null,null,null,null,null,null,"|",0,"|",".","|",0,"|",".","|",".","|"],[3,"|",".",".",null,null,null,null,null,null,null,null,null,null,null,null,null,null,null,null,"|",1,"|",".","|",0,"|",".","|",".","|"],[2,"|",4,"x",null,null,null,null,null,null,null,null,null,null,null,null,null,null,null,null,"|",0,"|",4,"|",0,"|",9,"|",3,"|"],[0,"|",".",".",null,null,null,null,null,null,null,null,null,null,null,null,null,null,null,null,"|",2,"|",".","|",2,"|",".","|",".","|"]]],"numberofstrings":4,"notes":["A","E","G","G"],"capo":"1","stringnotes":["A4","E4","C4","G3"],"comments":["Stave 1: x2","Stave 2:","Stave 3: start a fourth repeat and then go to an A major cord and strum that 9 times as well then go back to and F major chord and strum that once"],"timing":[["W","W","W","W","W","W","W","W","W","W","W","W","W","W","W","W","W","W","W","W","W","W","W","W","W","W","W","W","W","W",null,"W","W","W","W","W","W","W","W"],["W","W","W","W","W","W","W","W","W","W","W","W","W","W","W","W",null,"W","W","W","W","W","W","W","W","W","W"],["W",null,"W",null,null,null,null,null,null,null,null,null,null,null,null,null,null,null,null,null,null,"W",null,"W",null,"W",null,"W",null,"W"]],"timingvisible":false,"tabcounter":31,"stave":2,"totalstaves":3,"instrument":"ukulele","selectedtuning":"ukulele","version":"13"}

Member for

9 months 3 weeks
Submitted by Super Signal on Fri, 2020-09-25 21:34