Ukulele 1

Chords

01234567891011121314151617181920212223
E
B
G
D
A
E
B
0 1 2 3 4 5 6 7 8 9 10 11 12 13 14 15 16 17 18 19 20 21 22 23
(/) Slide Up  (\) Slide Down  (h) Hammer On  (p) Pull Off  (b) Bend (r) Release (v) Vibrato

Stave 1:

A|--2--------------4--------------4-----------------------5--7--9--10--9--7--5--
E|-----4--2-----------4--2-----------2--4---------------------------------------
G|-----------4--------------4--------------4------------------------------------
G|--------------4--------------6--------------6--8--6--4------------------------

Stave 2:

A|--2--3--5--7--------------2--7------------------7--------------------------------
E|--------------7--5--------------7--5---------------5--7--------------------5-----
G|--------------------7-----------------7--9--11-----------7--5-----7--9--------7--
G|-----------------------7---------------------------------------0--------9--------

							http://www.guitartabcreator.com
Instruments
{"strings":[[[2,".",".",".",".",4,".",".",".",".",4,".",".",".",".",".",".",".",5,7,9,10,9,7,5],[".",4,2,".",".",".",4,2,".",".",".",2,4,".",".",".",".",".",".",".",".",".",".",".","."],[".",".",".",4,".",".",".",".",4,".",".",".",".",4,".",".",".",".",".",".",".",".",".",".","."],[".",".",".",".",4,".",".",".",".",6,".",".",".",".",6,8,6,4,".",".",".",".",".",".","."]],[[2,3,5,7,".",".",".",".",2,7,".",".",".",".",".",7,".",".",".",".",".",".",".",".",".","."],[".",".",".",".",7,5,".",".",".",".",7,5,".",".",".",".",5,7,".",".",".",".",".",".",5,"."],[".",".",".",".",".",".",7,".",".",".",".",".",7,9,11,".",".",".",7,5,".",7,9,".",".",7],[".",".",".",".",".",".",".",7,".",".",".",".",".",".",".",".",".",".",".",".",0,".",".",9,".","."]]],"numberofstrings":4,"notes":["A","E","G","G"],"capo":0,"stringnotes":["A4","E4","C4","G3"],"comments":["Stave 1:","Stave 2:"],"timing":[["W","W","W","W","W","W","W","W","W","W","W","W","W","W","W","W","W","W","W","W","W","W","W","W","W","W","W","W"],["W","W","W","W","W","W","W","W","W","W","W","W","W","W","W","W","W","W","W","W","W","W","W","W","W","W"]],"timingvisible":false,"tabcounter":26,"stave":1,"totalstaves":2,"instrument":"ukulele","selectedtuning":"ukulele","version":"13"}

Member for

9 months 3 weeks
Submitted by Super Signal on Sun, 2020-07-19 15:02