Set the Signal

Chords

01234567891011121314151617181920212223
E
B
G
D
A
E
B
0 1 2 3 4 5 6 7 8 9 10 11 12 13 14 15 16 17 18 19 20 21 22 23
(/) Slide Up  (\) Slide Down  (h) Hammer On  (p) Pull Off  (b) Bend (r) Release (v) Vibrato

Stave 1:

E|--------------------------------------------------------------------------
B|--1-----------1--------1--1-----------1--------1--0-----------0--------0--
G|-----0-----------0-----------2-----------2-----------0-----------0--------
D|--------2-----------2-----------2-----------2-----------0-----------0-----
A|--3--------3--------------0--------0--------------2--------2--------------
E|--------------------------------------------------------------------------

Stave 2: end of intro

E|--------------------------------------------------------------------------------------------------------------|--
B|--1-----------1-----------1--------1--1-----------1-----------1--------1--0-----------0-----------0--------0--|--
G|-----------0-----0-----------0-----------------2-----2-----------2-----------------0-----0-----------0--------|--
D|--------2-----------2-----------2-----------2-----------2-----------2-----------0-----------0-----------0-----|--
A|-----3-----------------3-----------------0-----------------0-----------------2-----------------2--------------|--
E|--------------------------------------------------------------------------------------------------------------|--

Stave 3:

E|--------------------------------------------------------------------------------------------------------------
B|--1-----------1-----------1--------1--1-----------1-----------1--------1--0-----------0-----------0--------0--
G|--0--------0-----0-----------0--------2--------2-----2-----------2--------0--------0-----0-----------0--------
D|--2-----2-----------2-----------2-----2-----2-----------2-----------2-----2-----2-----------2-----------2-----
A|--3--3-----------------3--------------0--0-----------------0--------------2--2-----------------2--------------
E|--------------------------------------------------------------------------------------------------------------

Stave 4:

E|--------------------------------------------------------------------------------------------------------------------------------------------------
B|--1-----------1-----------1--------1--1-----------1-----------1--------1--0-----------0-----------0--------0--0-----------0-----------0--------0--
G|--0--------0-----0-----------0--------2--------2-----2-----------2--------1--------1-----1-----------1--------0--------0-----0-----------0--------
D|--2-----2-----------2-----------2-----2-----2-----------2-----------2-----2-----2-----------2-----------2-----0-----0-----------0-----------0-----
A|--3--3-----------------3--------------0--0-----------------0--------------2--2-----------------2--------------2--2-----------------2--------------
E|--------------------------------------------------------------------------------------------------------------3-----------------------------------

Stave 5: end of verse

E|-----------------------------------2--|--------------------------------------------------------------------------------------------------
B|--3-----------3-----------3-----3-----|--1-----------1-----------1-----------1-----------0-----------0-----------0-----------0-----------
G|--2--------2-----2-----------2--------|--0--------0--0--------0--2--------2--2--------2--0--------0--0--------0--0--------0--0--------0--
D|--0-----0-----------0-----------------|--2-----2-----2-----2-----2-----2-----2-----2-----2-----2-----2-----2-----2-----2-----2-----2-----
A|--0--0-----------------0--------------|--3--3--------3--3--------0--0--------0--0--------2--2--------2--2--------2--2--------2--2--------
E|--------------------------------------|--------------------------------------------------0-----------0-----------0-----------0-----------

Stave 6: end of chorus

E|-----------------------------------------------------------------------------------------------------------------------------------------2--|--
B|--1-----------1-----------1-----------1-----------0-----------0-----------0-----------0-----------3-----------3-----------3-----------3-----|--
G|--0--------0--0--------0--2--------2--2--------2--1--------1--1--------1--0--------0--0--------0--2--------2--2--------2--2--------2--------|--
D|--2-----2-----2-----2-----2-----2-----2-----2-----2-----2-----2-----2-----0-----0-----0-----0-----0-----0-----0-----0-----0-----0-----------|--
A|--3--3--------3--3--------0--0--------0--0--------2--2--------2--2--------2--2--------2--2--------0--0--------0--0--------0--0--------------|--
E|--------------------------------------------------------------------------3-----------3-----------------------------------------------------|--

Stave 7:

E|--------------------------------------------------------------------------------------------------------------------------------------------------
B|--1-----------1-----------1--------1--1-----------1-----------1--------1--0-----------0-----------0--------0--1-----------1-----------1--------1--
G|--0--------0-----0-----------0--------0--------0-----0-----------0--------0--------0-----0-----------0--------0--------0-----0-----------0--------
D|--2-----2-----------2-----------2-----0-----0-----------0-----------0-----2-----2-----------2-----------2-----2-----2-----------2-----------2-----
A|--3--3-----------------3--------------2--2-----------------2--------------2--2-----------------2--------------3--3-----------------3--------------
E|--------------------------------------3-----------------------------------------------------------------------------------------------------------

Stave 8:

E|----------------------------------------------------------------------------------------------------------------------------------------------------
B|--1-----------1-----------1--------1--1-----------1-----------1--------1/3--3-----------3-----------3--------3--1-----------1-----------1--------1--
G|--0--------0-----0-----------0--------2--------2-----2-----------2----------4--------4-----4-----------4--------2--------2-----2-----------2--------
D|--0-----0-----------0-----------0-----2-----2-----------2-----------2-------5-----5-----------5-----------5-----3-----3-----------3-----------3-----
A|--2--2-----------------2--------------0--0-----------------0----------------5--5-----------------5--------------3--3-----------------3--------------
E|--3-------------------------------------------------------------------------------------------------------------------------------------------------

Stave 9: end of verse 2

E|-----------------------------------2--|--------------------------------------------------------------------------------------------------
B|--3-----------3-----------3-----3-----|--1-----------1-----------1-----------1-----------0-----------0-----------0-----------0-----------
G|--2--------2-----2-----------2--------|--0--------0--0--------0--0--------0--0--------0--0--------0--0--------0--0-----------0-----------
D|--0-----0-----------0-----------------|--2-----2-----2-----2-----0-----0-----0-----0-----2-----2-----2-----2-----2--------2--2--------2--
A|--0--0-----------------0--------------|--3--3--------3--3--------2--2--------2--2--------2--2--------2--2--------2-----2-----2-----2-----
E|--------------------------------------|--------------------------3-----------3-----------0-----------0-----------0--0--------0--0--------

Stave 10:

E|--------------------------------------------------------------------------------------------------------------------------
B|--1-----------1-----------1-----------1-----------1-----------1-----------3-----------3-----------1-----------1-----------
G|--0--------0--0--------0--0--------0--0--------0--2--------2--2--------2--4--------4--4--------4--2--------2--2--------2--
D|--2-----2-----2-----2-----0-----0-----0-----0-----2-----2-----2-----2-----5-----5-----5-----5-----3-----3-----3-----3-----
A|--3--3--------3--3--------2--2--------2--2--------0--0--------0--0--------5--5--------5--5--------3--3--------3--3--------
E|--------------------------3-----------3-----------------------------------------------------------------------------------

Stave 11: end of chorus 2

E|-----------------------------------------2--|--------------------------------------------------------------------------------------------------------------
B|--3-----------3-----------3-----------3-----|--1--------1--------1--------1--------1--------1--------0--------0--------3--------3--------1--------1--------
G|--2--------2--2--------2--2--------2--------|-----2--------2--------0--------0--------2--------2--------1--------1--------4--------4--------2--------2-----
D|--0-----0-----0-----0-----0-----0-----------|--------3--------3--------3--------3--------2--------2--------2--------2--------5--------5--------3--------3--
A|--0--0--------0--0--------0--0--------------|--------------------------------------------------------------------------------------------------------------
E|--------------------------------------------|--------------------------------------------------------------------------------------------------------------

Stave 12: end of bridge

E|-----------------------------2--|--------------------------------------------------------------------------------------------------
B|--3--------3--------3-----3-----|--1-----------1-----------1-----------1-----------0-----------0-----------0-----------0-----------
G|-----2--------2--------2--------|--0--------0--0--------0--2--------2--2--------2--0--------0--0--------0--0--------0--0--------0--
D|--------0--------0--------------|--2-----2-----2-----2-----2-----2-----2-----2-----0-----0-----0-----0-----0-----0-----0-----0-----
A|--------------------------------|--3--3--------3--3--------0--0--------0--0--------2--2--------2--2--------2--2--------2--2--------
E|--------------------------------|--------------------------------------------------3-----------3-----------3-----------3-----------

Stave 13:

E|--------------------------------------------------------------------------------------------------------------------------------------
B|--1-----------1-----------1--------1--1-----------1-----------1--------1--0-----------0-----------0--------0--1-----------1--------1--
G|--0--------0-----0-----------0--------2--------2-----2-----------2--------0--------0-----0-----------0-----------0-----------0--------
D|--2-----2-----------2-----------2-----2-----2-----------2-----------2-----0-----0-----------0-----------0-----------2-----------2-----
A|--3--3-----------------3--------------0--0-----------------0--------------2--2-----------------2-----------------------3--------------
E|--------------------------------------------------------------------------3-----------------------------------------------------------

Stave 14: end of outro - slow tempo

E|--------------------------------------------------|-----------------------------------------------------------------------------------------------2--
B|--1-----------1--------1--0-----------0--------0--|--1-----------1--------1--1-----------1--------1--0-----------0--------0--3-----------3-----3-----
G|-----2-----------2-----------0-----------0--------|-----0-----------0-----------2-----------2-----------0-----------0-----------2-----------2--------
D|--------2-----------2-----------0-----------0-----|--------2-----------2-----------2-----------2-----------0-----------0-----------0-----------------
A|-----------0-----------------------2--------------|-----------3-----------------------0-----------------------2-----------------------0--------------
E|--------------------------------------------------|--------------------------------------------------------------------------------------------------

							http://www.guitartabcreator.com
Instruments
{"strings":[[[".",".",".",".",".",".",".",".",".",".",".",".",".",".",".",".",".",".",".",".",".",".",".","."],[1,".",".",".",1,".",".",1,1,".",".",".",1,".",".",1,0,".",".",".",0,".",".",0],[".",0,".",".",".",0,".",".",".",2,".",".",".",2,".",".",".",0,".",".",".",0,".","."],[".",".",2,".",".",".",2,".",".",".",2,".",".",".",2,".",".",".",0,".",".",".",0,"."],[3,".",".",3,".",".",".",".",0,".",".",0,".",".",".",".",2,".",".",2,".",".",".","."],[".",".",".",".",".",".",".",".",".",".",".",".",".",".",".",".",".",".",".",".",".",".",".","."]],[[".",".",".",".",".",".",".",".",".",".",".",".",".",".",".",".",".",".",".",".",".",".",".",".",".",".",".",".",".",".",".",".",".",".",".",".","|"],[1,".",".",".",1,".",".",".",1,".",".",1,1,".",".",".",1,".",".",".",1,".",".",1,0,".",".",".",0,".",".",".",0,".",".",0,"|"],[".",".",".",0,".",0,".",".",".",0,".",".",".",".",".",2,".",2,".",".",".",2,".",".",".",".",".",0,".",0,".",".",".",0,".",".","|"],[".",".",2,".",".",".",2,".",".",".",2,".",".",".",2,".",".",".",2,".",".",".",2,".",".",".",0,".",".",".",0,".",".",".",0,".","|"],[".",3,".",".",".",".",".",3,".",".",".",".",".",0,".",".",".",".",".",0,".",".",".",".",".",2,".",".",".",".",".",2,".",".",".",".","|"],[".",".",".",".",".",".",".",".",".",".",".",".",".",".",".",".",".",".",".",".",".",".",".",".",".",".",".",".",".",".",".",".",".",".",".",".","|"]],[[".",".",".",".",".",".",".",".",".",".",".",".",".",".",".",".",".",".",".",".",".",".",".",".",".",".",".",".",".",".",".",".",".",".",".","."],[1,".",".",".",1,".",".",".",1,".",".",1,1,".",".",".",1,".",".",".",1,".",".",1,0,".",".",".",0,".",".",".",0,".",".",0],[0,".",".",0,".",0,".",".",".",0,".",".",2,".",".",2,".",2,".",".",".",2,".",".",0,".",".",0,".",0,".",".",".",0,".","."],[2,".",2,".",".",".",2,".",".",".",2,".",2,".",2,".",".",".",2,".",".",".",2,".",2,".",2,".",".",".",2,".",".",".",2,"."],[3,3,".",".",".",".",".",3,".",".",".",".",0,0,".",".",".",".",".",0,".",".",".",".",2,2,".",".",".",".",".",2,".",".",".","."],[".",".",".",".",".",".",".",".",".",".",".",".",".",".",".",".",".",".",".",".",".",".",".",".",".",".",".",".",".",".",".",".",".",".",".","."]],[[".",".",".",".",".",".",".",".",".",".",".",".",".",".",".",".",".",".",".",".",".",".",".",".",".",".",".",".",".",".",".",".",".",".",".",".",".",".",".",".",".",".",".",".",".",".",".","."],[1,".",".",".",1,".",".",".",1,".",".",1,1,".",".",".",1,".",".",".",1,".",".",1,0,".",".",".",0,".",".",".",0,".",".",0,0,".",".",".",0,".",".",".",0,".",".",0],[0,".",".",0,".",0,".",".",".",0,".",".",2,".",".",2,".",2,".",".",".",2,".",".",1,".",".",1,".",1,".",".",".",1,".",".",0,".",".",0,".",0,".",".",".",0,".","."],[2,".",2,".",".",".",2,".",".",".",2,".",2,".",2,".",".",".",2,".",".",".",2,".",2,".",2,".",".",".",2,".",".",".",2,".",0,".",0,".",".",".",0,".",".",".",0,"."],[3,3,".",".",".",".",".",3,".",".",".",".",0,0,".",".",".",".",".",0,".",".",".",".",2,2,".",".",".",".",".",2,".",".",".",".",2,2,".",".",".",".",".",2,".",".",".","."],[".",".",".",".",".",".",".",".",".",".",".",".",".",".",".",".",".",".",".",".",".",".",".",".",".",".",".",".",".",".",".",".",".",".",".",".",3,".",".",".",".",".",".",".",".",".",".","."]],[[null,null,null,".",".",".",".",".",".",".",".",".",".",".",2,"|",".",".",".",".",".",".",".",".",".",".",".",".",".",".",".",".",".",".",".",".",".",".",".",".",".",".",".",".",".",".",".","."],[null,null,null,3,".",".",".",3,".",".",".",3,".",3,".","|",1,".",".",".",1,".",".",".",1,".",".",".",1,".",".",".",0,".",".",".",0,".",".",".",0,".",".",".",0,".",".","."],[null,null,null,2,".",".",2,".",2,".",".",".",2,".",".","|",0,".",".",0,0,".",".",0,2,".",".",2,2,".",".",2,0,".",".",0,0,".",".",0,0,".",".",0,0,".",".",0],[null,null,null,0,".",0,".",".",".",0,".",".",".",".",".","|",2,".",2,".",2,".",2,".",2,".",2,".",2,".",2,".",2,".",2,".",2,".",2,".",2,".",2,".",2,".",2,"."],[null,null,null,0,0,".",".",".",".",".",0,".",".",".",".","|",3,3,".",".",3,3,".",".",0,0,".",".",0,0,".",".",2,2,".",".",2,2,".",".",2,2,".",".",2,2,".","."],[null,null,null,".",".",".",".",".",".",".",".",".",".",".",".","|",".",".",".",".",".",".",".",".",".",".",".",".",".",".",".",".",0,".",".",".",0,".",".",".",0,".",".",".",0,".",".","."]],[[".",".",".",".",".",".",".",".",".",".",".",".",".",".",".",".",".",".",".",".",".",".",".",".",".",".",".",".",".",".",".",".",".",".",".",".",".",".",".",".",".",".",".",".",".",2,"|"],[1,".",".",".",1,".",".",".",1,".",".",".",1,".",".",".",0,".",".",".",0,".",".",".",0,".",".",".",0,".",".",".",3,".",".",".",3,".",".",".",3,".",".",".",3,".","|"],[0,".",".",0,0,".",".",0,2,".",".",2,2,".",".",2,1,".",".",1,1,".",".",1,0,".",".",0,0,".",".",0,2,".",".",2,2,".",".",2,2,".",".",2,".",".","|"],[2,".",2,".",2,".",2,".",2,".",2,".",2,".",2,".",2,".",2,".",2,".",2,".",0,".",0,".",0,".",0,".",0,".",0,".",0,".",0,".",0,".",0,".",".",".","|"],[3,3,".",".",3,3,".",".",0,0,".",".",0,0,".",".",2,2,".",".",2,2,".",".",2,2,".",".",2,2,".",".",0,0,".",".",0,0,".",".",0,0,".",".",".",".","|"],[".",".",".",".",".",".",".",".",".",".",".",".",".",".",".",".",".",".",".",".",".",".",".",".",3,".",".",".",3,".",".",".",".",".",".",".",".",".",".",".",".",".",".",".",".",".","|"]],[[".",".",".",".",".",".",".",".",".",".",".",".",".",".",".",".",".",".",".",".",".",".",".",".",".",".",".",".",".",".",".",".",".",".",".",".",".",".",".",".",".",".",".",".",".",".",".","."],[1,".",".",".",1,".",".",".",1,".",".",1,1,".",".",".",1,".",".",".",1,".",".",1,0,".",".",".",0,".",".",".",0,".",".",0,1,".",".",".",1,".",".",".",1,".",".",1],[0,".",".",0,".",0,".",".",".",0,".",".",0,".",".",0,".",0,".",".",".",0,".",".",0,".",".",0,".",0,".",".",".",0,".",".",0,".",".",0,".",0,".",".",".",0,".","."],[2,".",2,".",".",".",2,".",".",".",2,".",0,".",0,".",".",".",0,".",".",".",0,".",2,".",2,".",".",".",2,".",".",".",2,".",2,".",2,".",".",".",2,".",".",".",2,"."],[3,3,".",".",".",".",".",3,".",".",".",".",2,2,".",".",".",".",".",2,".",".",".",".",2,2,".",".",".",".",".",2,".",".",".",".",3,3,".",".",".",".",".",3,".",".",".","."],[".",".",".",".",".",".",".",".",".",".",".",".",3,".",".",".",".",".",".",".",".",".",".",".",".",".",".",".",".",".",".",".",".",".",".",".",".",".",".",".",".",".",".",".",".",".",".","."]],[[".",".",".",".",".",".",".",".",".",".",".",".",".",".",".",".",".",".",".",".",".",".",".",".",".",".",".",".",".",".",".",".",".",".",".",".",".",".",".",".",".",".",".",".",".",".",".",".",".","."],[1,".",".",".",1,".",".",".",1,".",".",1,1,".",".",".",1,".",".",".",1,".",".",1,"/",3,3,".",".",".",3,".",".",".",3,".",".",3,1,".",".",".",1,".",".",".",1,".",".",1],[0,".",".",0,".",0,".",".",".",0,".",".",2,".",".",2,".",2,".",".",".",2,".",".",".",".",4,".",".",4,".",4,".",".",".",4,".",".",2,".",".",2,".",2,".",".",".",2,".","."],[0,".",0,".",".",".",0,".",".",".",0,".",2,".",2,".",".",".",2,".",".",".",2,".",".",".",5,".",5,".",".",".",5,".",".",".",5,".",3,".",3,".",".",".",3,".",".",".",3,"."],[2,2,".",".",".",".",".",2,".",".",".",".",0,0,".",".",".",".",".",0,".",".",".",".",".",".",5,5,".",".",".",".",".",5,".",".",".",".",3,3,".",".",".",".",".",3,".",".",".","."],[3,".",".",".",".",".",".",".",".",".",".",".",".",".",".",".",".",".",".",".",".",".",".",".",".",".",".",".",".",".",".",".",".",".",".",".",".",".",".",".",".",".",".",".",".",".",".",".",".","."]],[[".",".",".",".",".",".",".",".",".",".",".",2,"|",".",".",".",".",".",".",".",".",".",".",".",".",".",".",".",".",".",".",".",".",".",".",".",".",".",".",".",".",".",".",".","."],[3,".",".",".",3,".",".",".",3,".",3,".","|",1,".",".",".",1,".",".",".",1,".",".",".",1,".",".",".",0,".",".",".",0,".",".",".",0,".",".",".",0,".",".","."],[2,".",".",2,".",2,".",".",".",2,".",".","|",0,".",".",0,0,".",".",0,0,".",".",0,0,".",".",0,0,".",".",0,0,".",".",0,0,".",".",".",0,".",".","."],[0,".",0,".",".",".",0,".",".",".",".",".","|",2,".",2,".",2,".",2,".",0,".",0,".",0,".",0,".",2,".",2,".",2,".",2,".",2,".",".",2,2,".",".",2],[0,0,".",".",".",".",".",0,".",".",".",".","|",3,3,".",".",3,3,".",".",2,2,".",".",2,2,".",".",2,2,".",".",2,2,".",".",2,".",2,".",2,".",2,"."],[".",".",".",".",".",".",".",".",".",".",".",".","|",".",".",".",".",".",".",".",".",3,".",".",".",3,".",".",".",0,".",".",".",0,".",".",".",0,0,".",".",0,0,".","."]],[[".",".",".",".",".",".",".",".",".",".",".",".",".",".",".",".",".",".",".",".",".",".",".",".",".",".",".",".",".",".",".",".",".",".",".",".",".",".",".","."],[1,".",".",".",1,".",".",".",1,".",".",".",1,".",".",".",1,".",".",".",1,".",".",".",3,".",".",".",3,".",".",".",1,".",".",".",1,".",".","."],[0,".",".",0,0,".",".",0,0,".",".",0,0,".",".",0,2,".",".",2,2,".",".",2,4,".",".",4,4,".",".",4,2,".",".",2,2,".",".",2],[2,".",2,".",2,".",2,".",0,".",0,".",0,".",0,".",2,".",2,".",2,".",2,".",5,".",5,".",5,".",5,".",3,".",3,".",3,".",3,"."],[3,3,".",".",3,3,".",".",2,2,".",".",2,2,".",".",0,0,".",".",0,0,".",".",5,5,".",".",5,5,".",".",3,3,".",".",3,3,".","."],[".",".",".",".",".",".",".",".",3,".",".",".",3,".",".",".",".",".",".",".",".",".",".",".",".",".",".",".",".",".",".",".",".",".",".",".",".",".",".","."]],[[".",".",".",".",".",".",".",".",".",".",".",".",".",2,"|",".",".",".",".",".",".",".",".",".",".",".",".",".",".",".",".",".",".",".",".",".",".",".",".",".",".",".",".",".",".",".",".",".",".",".","."],[3,".",".",".",3,".",".",".",3,".",".",".",3,".","|",1,".",".",1,".",".",1,".",".",1,".",".",1,".",".",1,".",".",0,".",".",0,".",".",3,".",".",3,".",".",1,".",".",1,".","."],[2,".",".",2,2,".",".",2,2,".",".",2,".",".","|",".",2,".",".",2,".",".",0,".",".",0,".",".",2,".",".",2,".",".",1,".",".",1,".",".",4,".",".",4,".",".",2,".",".",2,"."],[0,".",0,".",0,".",0,".",0,".",0,".",".",".","|",".",".",3,".",".",3,".",".",3,".",".",3,".",".",2,".",".",2,".",".",2,".",".",2,".",".",5,".",".",5,".",".",3,".",".",3],[0,0,".",".",0,0,".",".",0,0,".",".",".",".","|",".",".",".",".",".",".",".",".",".",".",".",".",".",".",".",".",".",".",".",".",".",".",".",".",".",".",".",".",".",".",".",".",".",".",".","."],[".",".",".",".",".",".",".",".",".",".",".",".",".",".","|",".",".",".",".",".",".",".",".",".",".",".",".",".",".",".",".",".",".",".",".",".",".",".",".",".",".",".",".",".",".",".",".",".",".",".","."]],[[".",".",".",".",".",".",".",".",".",2,"|",".",".",".",".",".",".",".",".",".",".",".",".",".",".",".",".",".",".",".",".",".",".",".",".",".",".",".",".",".",".",".","."],[3,".",".",3,".",".",3,".",3,".","|",1,".",".",".",1,".",".",".",1,".",".",".",1,".",".",".",0,".",".",".",0,".",".",".",0,".",".",".",0,".",".","."],[".",2,".",".",2,".",".",2,".",".","|",0,".",".",0,0,".",".",0,2,".",".",2,2,".",".",2,0,".",".",0,0,".",".",0,0,".",".",0,0,".",".",0],[".",".",0,".",".",0,".",".",".",".","|",2,".",2,".",2,".",2,".",2,".",2,".",2,".",2,".",0,".",0,".",0,".",0,".",0,".",0,".",0,".",0,"."],[".",".",".",".",".",".",".",".",".",".","|",3,3,".",".",3,3,".",".",0,0,".",".",0,0,".",".",2,2,".",".",2,2,".",".",2,2,".",".",2,2,".","."],[".",".",".",".",".",".",".",".",".",".","|",".",".",".",".",".",".",".",".",".",".",".",".",".",".",".",".",3,".",".",".",3,".",".",".",3,".",".",".",3,".",".","."]],[[".",".",".",".",".",".",".",".",".",".",".",".",".",".",".",".",".",".",".",".",".",".",".",".",".",".",".",".",".",".",".",".",".",".",".",".",".",".",".",".",".",".",".","."],[1,".",".",".",1,".",".",".",1,".",".",1,1,".",".",".",1,".",".",".",1,".",".",1,0,".",".",".",0,".",".",".",0,".",".",0,1,".",".",".",1,".",".",1],[0,".",".",0,".",0,".",".",".",0,".",".",2,".",".",2,".",2,".",".",".",2,".",".",0,".",".",0,".",0,".",".",".",0,".",".",".",0,".",".",".",0,".","."],[2,".",2,".",".",".",2,".",".",".",2,".",2,".",2,".",".",".",2,".",".",".",2,".",0,".",0,".",".",".",0,".",".",".",0,".",".",".",2,".",".",".",2,"."],[3,3,".",".",".",".",".",3,".",".",".",".",0,0,".",".",".",".",".",0,".",".",".",".",2,2,".",".",".",".",".",2,".",".",".",".",".",".",".",3,".",".",".","."],[".",".",".",".",".",".",".",".",".",".",".",".",".",".",".",".",".",".",".",".",".",".",".",".",3,".",".",".",".",".",".",".",".",".",".",".",".",".",".",".",".",".",".","."]],[[".",".",".",".",".",".",".",".",".",".",".",".",".",".",".",".","|",".",".",".",".",".",".",".",".",".",".",".",".",".",".",".",".",".",".",".",".",".",".",".",".",".",".",".",".",".",".",".",2],[1,".",".",".",1,".",".",1,0,".",".",".",0,".",".",0,"|",1,".",".",".",1,".",".",1,1,".",".",".",1,".",".",1,0,".",".",".",0,".",".",0,3,".",".",".",3,".",3,"."],[".",2,".",".",".",2,".",".",".",0,".",".",".",0,".",".","|",".",0,".",".",".",0,".",".",".",2,".",".",".",2,".",".",".",0,".",".",".",0,".",".",".",2,".",".",".",2,".","."],[".",".",2,".",".",".",2,".",".",".",0,".",".",".",0,".","|",".",".",2,".",".",".",2,".",".",".",2,".",".",".",2,".",".",".",0,".",".",".",0,".",".",".",0,".",".",".",".","."],[".",".",".",0,".",".",".",".",".",".",".",2,".",".",".",".","|",".",".",".",3,".",".",".",".",".",".",".",0,".",".",".",".",".",".",".",2,".",".",".",".",".",".",".",0,".",".",".","."],[".",".",".",".",".",".",".",".",".",".",".",".",".",".",".",".","|",".",".",".",".",".",".",".",".",".",".",".",".",".",".",".",".",".",".",".",".",".",".",".",".",".",".",".",".",".",".",".","."]]],"numberofstrings":6,"notes":["E","B","G","D","A","E","B"],"capo":0,"stringnotes":["E4","B3","G3","D3","A2","E2"],"comments":["Stave 1:","Stave 2: end of intro","Stave 3:","Stave 4:","Stave 5: end of verse","Stave 6: end of chorus","Stave 7:","Stave 8:","Stave 9: end of verse 2","Stave 10:","Stave 11: end of chorus 2","Stave 12: end of bridge","Stave 13:","Stave 14: end of outro - slow tempo"],"timing":[["W","W","W","W","W","W","W","W","W","W","W","W","W","W","W","W","W","W","W","W","W","W","W","W"],["W","W","W","W","W","W","W","W","W","W","W","W","W","W","W","W","W","W","W","W","W","W","W","W","W","W","W","W","W","W","W","W","W","W","W","W"],["W","W","W","W","W","W","W","W","W","W","W","W","W","W","W","W","W","W","W","W","W","W","W","W","W","W","W","W","W","W","W","W","W","W","W","W"],["W","W","W","W","W","W","W","W","W","W","W","W","W","W","W","W","W","W","W","W","W","W","W","W","W","W","W","W","W","W","W","W","W","W","W","W","W","W","W","W","W","W","W","W","W","W","W","W","W","W","W"],["W","W","W","W","W","W","W","W","W","W","W","W","W","W","W","W","W","W","W","W","W","W","W","W","W","W","W","W","W","W","W","W","W","W","W","W","W","W","W","W","W","W","W","W","W","W","W","W"],["W","W","W","W","W","W","W","W","W","W","W","W","W","W","W","W","W","W","W","W","W","W","W","W","W","W","W","W","W","W","W","W","W","W","W","W","W","W","W","W","W","W","W","W","W","W"],["W","W","W","W","W","W","W","W","W","W","W","W","W","W","W","W","W","W","W","W","W","W","W","W","W","W","W","W","W","W","W","W","W","W","W","W","W","W","W","W","W","W","W","W","W","W","W","W"],["W","W","W","W","W","W","W","W","W","W","W","W","W","W","W","W","W","W","W","W","W","W","W","W",null,"W","W","W","W","W","W","W","W","W","W","W","W","W","W","W","W","W","W","W","W","W","W","W","W","W"],["W","W","W","W","W","W","W","W","W","W","W","W",null,"W","W","W","W","W","W","W","W","W","W","W","W","W","W","W","W","W","W","W","W","W","W","W","W","W","W","W","W","W","W","W","W"],["W","W","W","W","W","W","W","W","W","W","W","W","W","W","W","W","W","W","W","W","W","W","W","W","W","W","W","W","W","W","W","W","W","W","W","W","W","W","W","W"],["W","W","W","W","W","W","W","W","W","W","W","W","W","W",null,"W","W","W","W","W","W","W","W","W","W","W","W","W","W","W","W","W","W","W","W","W","W","W","W","W","W","W","W","W","W","W","W","W","W","W","W"],["W","W","W","W","W","W","W","W","W","W","W","W","W","W","W","W","W","W","W","W","W","W","W","W","W","W","W","W","W","W","W","W","W","W","W","W","W","W","W","W","W","W","W"],["W","W","W","W","W","W","W","W","W","W","W","W","W","W","W","W","W","W","W","W","W","W","W","W","W","W","W","W","W","W","W","W","W","W","W","W","W","W","W","W","W","W","W","W"],["W","W","W","W","W","W","W","W","W","W","W","W","W","W","W","W",null,"W","W","W","W","W","W","W","W","W","W","W","W","W","W","W","W","W","W","W","W","W","W","W","W","W","W","W","W","W","W","W","W"]],"timingvisible":false,"tabcounter":48,"stave":4,"totalstaves":14,"instrument":"6guitar","selectedtuning":"6_standard","version":"13"}

Member for

9 months 3 weeks
Submitted by Super Signal on Sun, 2020-08-23 12:51