The Night of Halloween (unfinished)

Chords

01234567891011121314151617181920212223
E
B
G
D
A
E
B
0 1 2 3 4 5 6 7 8 9 10 11 12 13 14 15 16 17 18 19 20 21 22 23
(/) Slide Up  (\) Slide Down  (h) Hammer On  (p) Pull Off  (b) Bend (r) Release (v) Vibrato

Capo Fret 4

Stave 1:

E|-----0--------------------|-----------------------------------------------------------|--
B|--1--1--0--2--2-----------|-----------------------------------------------0-----------|--
G|--3--3--0--2-----2-----0--|-----0-----0-----2-----2-----0-----0-----2--------2--------|--
D|--5--5--2--2--------2--2--|--------2-----------2-----------2-----------2--------2-----|--
A|--5--5--2--0-----------2--|--2-----------0-----------2-----------0-----------------0--|--
E|-----------------------0--|-----------------------------------------------------------|--

Stave 2:

E|-----------------------------------------------------------------------------------------------------------------
B|-----------------------------------------------------------------------------------------------------------------
G|--------2--------0--------2--------0--------0--------0-----------2--------4--------4--------0--------2--------0--
D|-----0--------2--------0--------2--------2--------2-----------0--------0--------0--------2--------0--------2-----
A|--2--------0--------2--------0--------3--------2-----------2--------4--------2--------3--------2--------0--------
E|-----------------------------------------------------------------------------------------------------------------

Stave 3:

E|-----------------------------------------------------------------|-----------
B|--------------------------1--------------------------------------|--1--------
G|--------2--------4-----------------4--------2--------4--------0--|-----2-----
D|-----0--------0--------0--------0--------0--------0--------0-----|--------2--
A|--3--------3--------3--------3--------3--------3--------3--------|-----------
E|-----------------------------------------------------------------|-----------

							http://www.guitartabcreator.com
Instruments
{"strings":[[[".",0,".",".",".",".",".",".","|",".",".",".",".",".",".",".",".",".",".",".",".",".",".",".",".",".",".",".","|"],[1,1,0,2,2,".",".",".","|",".",".",".",".",".",".",".",".",".",".",".",".",".",".",".",0,".",".",".","|"],[3,3,0,2,".",2,".",0,"|",".",0,".",0,".",2,".",2,".",0,".",0,".",2,".",".",2,".",".","|"],[5,5,2,2,".",".",2,2,"|",".",".",2,".",".",".",2,".",".",".",2,".",".",".",2,".",".",2,".","|"],[5,5,2,0,".",".",".",2,"|",2,".",".",".",0,".",".",".",2,".",".",".",0,".",".",".",".",".",0,"|"],[".",".",".",".",".",".",".",0,"|",".",".",".",".",".",".",".",".",".",".",".",".",".",".",".",".",".",".",".","|"]],[[".",".",".",".",".",".",".",".",".",".",".",".",".",".",".",".",".",".","_",".",".",".",".",".",".",".",".",".",".",".",".",".",".",".",".",".","."],[".",".",".",".",".",".",".",".",".",".",".",".",".",".",".",".",".",".","_",".",".",".",".",".",".",".",".",".",".",".",".",".",".",".",".",".","."],[".",".",2,".",".",0,".",".",2,".",".",0,".",".",0,".",".",0,"_",".",".",2,".",".",4,".",".",4,".",".",0,".",".",2,".",".",0],[".",0,".",".",2,".",".",0,".",".",2,".",".",2,".",".",2,".","_",".",0,".",".",0,".",".",0,".",".",2,".",".",0,".",".",2,"."],[2,".",".",0,".",".",2,".",".",0,".",".",3,".",".",2,".",".","_",2,".",".",4,".",".",2,".",".",3,".",".",2,".",".",0,".","."],[".",".",".",".",".",".",".",".",".",".",".",".",".",".",".",".",".",".","_",".",".",".",".",".",".",".",".",".",".",".",".",".",".",".",".",".","."]],[[".",".",".",".",".",".",".",".",".",".",".",".",".",".",".",".",".",".",".",".",".","|",".",".","."],[".",".",".",".",".",".",".",".",1,".",".",".",".",".",".",".",".",".",".",".",".","|",1,".","."],[".",".",2,".",".",4,".",".",".",".",".",4,".",".",2,".",".",4,".",".",0,"|",".",2,"."],[".",0,".",".",0,".",".",0,".",".",0,".",".",0,".",".",0,".",".",0,".","|",".",".",2],[3,".",".",3,".",".",3,".",".",3,".",".",3,".",".",3,".",".",3,".",".","|",".",".","."],[".",".",".",".",".",".",".",".",".",".",".",".",".",".",".",".",".",".",".",".",".","|",".",".","."]]],"numberofstrings":6,"notes":["E","B","G","D","A","E","B"],"capo":"4","stringnotes":["E4","B3","G3","D3","A2","E2"],"comments":["Stave 1:","Stave 2:","Stave 3:"],"timing":[["W","W","W","W","W","W","W","W","W","W","W","W","W","W","W","W","W","W","W","W","W","W","W","W","W","W","W","W"],["W","W","W","W","W","W","W","W","W","W","W","W","W","W","W","W","W","W",null,"W","W","W","W","W","W","W","W","W","W","W","W","W","W","W","W","W","W",null,"W","W","W","W","W","W","W","W","W"],["W","W","W","W","W","W","W","W","W","W","W","W","W","W","W","W","W","W","W","W","W",null,"W","W","W"]],"timingvisible":false,"tabcounter":25,"stave":2,"totalstaves":3,"instrument":"6guitar","selectedtuning":"6_standard","version":"13"}

Member for

9 months 3 weeks
Submitted by Super Signal on Wed, 2020-10-14 12:31