Music Demo 17

Chords

01234567891011121314151617181920212223
E
B
G
D
A
E
B
0 1 2 3 4 5 6 7 8 9 10 11 12 13 14 15 16 17 18 19 20 21 22 23
(/) Slide Up  (\) Slide Down  (h) Hammer On  (p) Pull Off  (b) Bend (r) Release (v) Vibrato

Stave 1:

E|--3p0-----5p3-----3p0--------5p3-----5p3--5p3-------------
B|-------3-------5-------3--5-------5------------5--5p3-----
G|-------------------------------------------------------5--
D|----------------------------------------------------------
A|----------------------------------------------------------
E|----------------------------------------------------------

Stave 2:

E|-------------------------------
B|-------7p5-----5h6-----5h6-----
G|--5/7-------7-------7-------5--
D|-------------------------------
A|-------------------------------
E|-------------------------------

Stave 3:

E|------------3--5p3----------7--5h7p5------------------
B|--5\3--3p1----------5--7p5------------7--5--3h5p3-----
G|---------------------------------------------------5--
D|------------------------------------------------------
A|------------------------------------------------------
E|------------------------------------------------------

							http://www.guitartabcreator.com
Instruments
{"strings":[[[3,"p",0,".",5,"p",3,".",3,"p",0,".",".",5,"p",3,".",5,"p",3,5,"p",3,".",".",".",".","."],[".",".",".",3,".",".",".",5,".",".",".",3,5,".",".",".",5,".",".",".",".",".",".",5,5,"p",3,"."],[".",".",".",".",".",".",".",".",".",".",".",".",".",".",".",".",".",".",".",".",".",".",".",".",".",".",".",5],[".",".",".",".",".",".",".",".",".",".",".",".",".",".",".",".",".",".",".",".",".",".",".",".",".",".",".","."],[".",".",".",".",".",".",".",".",".",".",".",".",".",".",".",".",".",".",".",".",".",".",".",".",".",".",".","."],[".",".",".",".",".",".",".",".",".",".",".",".",".",".",".",".",".",".",".",".",".",".",".",".",".",".",".","."]],[[".",".",".",".",".",".",".",".",".",".",".",".",".",".","."],[".",".",".",7,"p",5,".",5,"h",6,".",5,"h",6,"."],[5,"/",7,".",".",".",7,".",".",".",7,".",".",".",5],[".",".",".",".",".",".",".",".",".",".",".",".",".",".","."],[".",".",".",".",".",".",".",".",".",".",".",".",".",".","."],[".",".",".",".",".",".",".",".",".",".",".",".",".",".","."]],[[".",".",".",".",".",".",3,5,"p",3,".",".",".",".",7,5,"h",7,"p",5,".",".",".",".",".",".",".","."],[5,"\\",3,3,"p",1,".",".",".",".",5,7,"p",5,".",".",".",".",".",".",7,5,3,"h",5,"p",3,"."],[".",".",".",".",".",".",".",".",".",".",".",".",".",".",".",".",".",".",".",".",".",".",".",".",".",".",".",5],[".",".",".",".",".",".",".",".",".",".",".",".",".",".",".",".",".",".",".",".",".",".",".",".",".",".",".","."],[".",".",".",".",".",".",".",".",".",".",".",".",".",".",".",".",".",".",".",".",".",".",".",".",".",".",".","."],[".",".",".",".",".",".",".",".",".",".",".",".",".",".",".",".",".",".",".",".",".",".",".",".",".",".",".","."]]],"numberofstrings":6,"notes":["E","B","G","D","A","E","B"],"capo":0,"stringnotes":["E4","B3","G3","D3","A2","E2"],"comments":["Stave 1:","Stave 2:","Stave 3:"],"timing":[["W",null,"W","W","W",null,"W","W","W",null,"W","W","W","W",null,"W","W","W",null,"W","W",null,"W","W","W",null,"W","W"],["W",null,"W","W",null,"W","W","W",null,"W","W","W","W","W","W","W",null,"W",null,"W","W","W","W",null,null,null,null,null,"W"],["W",null,"W","W",null,"W","W","W",null,"W","W","W",null,"W","W","W",null,"W",null,"W","W","W","W",null,"W",null,"W","W"]],"timingvisible":false,"tabcounter":28,"stave":1,"totalstaves":3,"instrument":"6guitar","selectedtuning":"6_standard","version":"13"}

Member for

9 months 3 weeks
Submitted by Super Signal on Fri, 2020-05-08 19:53