Music Demo 16

Chords

01234567891011121314151617181920212223
E
B
G
D
A
E
B
0 1 2 3 4 5 6 7 8 9 10 11 12 13 14 15 16 17 18 19 20 21 22 23
(/) Slide Up  (\) Slide Down  (h) Hammer On  (p) Pull Off  (b) Bend (r) Release (v) Vibrato

Capo Fret 4

Stave 1:

E|--------------------------------------------------------
B|--------------------------------------------------------
G|--------------0--------------3--2--------------3--2--0--
D|--------0--2-----------0--2-----2--------0--2--------0--
A|--0--3-----------0--3--------------0--3-----------------
E|--------------------------------------------------------

Stave 2:

E|---------------------------------------------------------------
B|----------------------------0--3--0--3p0-----------------------
G|------------3--0--------------------------2--3p0--2p0--2p------
D|-------0h2-------------0h2-----------------------------2----2--
A|--0h3-------------0h3---------------------------------------2--
E|---------------------------------------------------------------

							http://www.guitartabcreator.com
Tab Notes

To make it known that it is a new stave, you must pick the first note hard enough to where it makes a bit of percussion.

{"strings":[[[".",".",".",".",".",".",".",".",".",".",".",".",".",".",".",".",".","."],[".",".",".",".",".",".",".",".",".",".",".",".",".",".",".",".",".","."],[".",".",".",".",0,".",".",".",".",3,2,".",".",".",".",3,2,0],[".",".",0,2,".",".",".",0,2,".",2,".",".",0,2,".",".",0],[0,3,".",".",".",0,3,".",".",".",".",0,3,".",".",".",".","."],[".",".",".",".",".",".",".",".",".",".",".",".",".",".",".",".",".","."]],[[".",".",".",".",".",".",".",".",".",".",".",".",".",".",".",".",".",".",".",".",".",".",".",".",".",".",".",".",".","_","."],[".",".",".",".",".",".",".",".",".",".",".",".",".",".",0,3,0,3,"p",0,".",".",".",".",".",".",".",".",".","_","."],[".",".",".",".",".",".",3,0,".",".",".",".",".",".",".",".",".",".",".",".",2,3,"p",0,2,"p",0,2,"p","_","."],[".",".",".",0,"h",2,".",".",".",".",".",0,"h",2,".",".",".",".",".",".",".",".",".",".",".",".",".",2,".","_",2],[0,"h",3,".",".",".",".",".",0,"h",3,".",".",".",".",".",".",".",".",".",".",".",".",".",".",".",".",".",".","_",2],[".",".",".",".",".",".",".",".",".",".",".",".",".",".",".",".",".",".",".",".",".",".",".",".",".",".",".",".",".","_","."]]],"numberofstrings":6,"notes":["E","B","G","D","A","E","B"],"capo":"4","stringnotes":["E4","B3","G3","D3","A2","E2"],"comments":["Stave 1:","Stave 2:"],"timing":[["W","W","W","W","W","W","W","W","W","W","W","W","W","W","W","W","W","W"],["W",null,"W","W",null,"W","W","W","W",null,"W","W",null,"W","W","W","W","W",null,"W","W","W","W","W","W","W","W","W","W","W","W"]],"timingvisible":false,"tabcounter":42,"stave":1,"totalstaves":2,"instrument":"6guitar","selectedtuning":"6_standard","version":"13"}

Member for

9 months 3 weeks
Submitted by Super Signal on Fri, 2020-04-24 20:54