Music Demo 15

Chords

01234567891011121314151617181920212223
E
B
G
D
A
E
B
0 1 2 3 4 5 6 7 8 9 10 11 12 13 14 15 16 17 18 19 20 21 22 23
(/) Slide Up  (\) Slide Down  (h) Hammer On  (p) Pull Off  (b) Bend (r) Release (v) Vibrato

Stave 1:

E|-------------------------------------------
B|-------------------------------------------
G|-------------------------------------------
D|------11--10\11------11--7\9------11--5\7--
A|--12-------------12-----------12-----------
E|-------------------------------------------

Stave 2:

E|---------------------------------------------------
B|---------------------------------------------------
G|--------------11--10\11------11--7\9------11--5\7--
D|------11--12-------------12-----------12-----------
A|--12-----------------------------------------------
E|---------------------------------------------------

Stave 3:

E|---------------------------------------------------------
B|---------------------------------------------------------
G|------11-------------------------------------------------
D|--12----------11--9h10\11------11--6h7\9------11--4h5\7--
A|----------12---------------12-------------12-------------
E|---------------------------------------------------------

Stave 4:

E|---------------------------------------------------------
B|---------------------------------------------------------
G|--------------11--9h10\11------11--6h7\9------11--4h5\7--
D|------11--12---------------12-------------12-------------
A|--12-----------------------------------------------------
E|---------------------------------------------------------

							http://www.guitartabcreator.com
Instruments
{"title":"Music Demo 14","strings":[[[".",".",".",".",".",".",".",".",".",".",".",".",".",".","."],[".",".",".",".",".",".",".",".",".",".",".",".",".",".","."],[".",".",".",".",".",".",".",".",".",".",".",".",".",".","."],[".",11,10,"\\",11,".",11,7,"\\",9,".",11,5,"\\",7],[12,".",".",".",".",12,".",".",".",".",12,".",".",".","."],[".",".",".",".",".",".",".",".",".",".",".",".",".",".","."]],[[".",".",".",".",".",".",".",".",".",".",".",".",".",".",".",".","."],[".",".",".",".",".",".",".",".",".",".",".",".",".",".",".",".","."],[".",".",".",11,10,"\\",11,".",11,7,"\\",9,".",11,5,"\\",7],[".",11,12,".",".",".",".",12,".",".",".",".",12,".",".",".","."],[12,".",".",".",".",".",".",".",".",".",".",".",".",".",".",".","."],[".",".",".",".",".",".",".",".",".",".",".",".",".",".",".",".","."]],[[".",".",".",".",".",".",".",".",".",".",".",".",".",".",".",".",".",".",".",".",".",".","."],[".",".",".",".",".",".",".",".",".",".",".",".",".",".",".",".",".",".",".",".",".",".","."],[".",11,".",".",".",".",".",".",".",".",".",".",".",".",".",".",".",".",".",".",".",".","."],[12,".",".",11,9,"h",10,"\\",11,".",11,6,"h",7,"\\",9,".",11,4,"h",5,"\\",7],[".",".",12,".",".",".",".",".",".",12,".",".",".",".",".",".",12,".",".",".",".",".","."],[".",".",".",".",".",".",".",".",".",".",".",".",".",".",".",".",".",".",".",".",".",".","."]],[[".",".",".",".",".",".",".",".",".",".",".",".",".",".",".",".",".",".",".",".",".",".","."],[".",".",".",".",".",".",".",".",".",".",".",".",".",".",".",".",".",".",".",".",".",".","."],[".",".",".",11,9,"h",10,"\\",11,".",11,6,"h",7,"\\",9,".",11,4,"h",5,"\\",7],[".",11,12,".",".",".",".",".",".",12,".",".",".",".",".",".",12,".",".",".",".",".","."],[12,".",".",".",".",".",".",".",".",".",".",".",".",".",".",".",".",".",".",".",".",".","."],[".",".",".",".",".",".",".",".",".",".",".",".",".",".",".",".",".",".",".",".",".",".","."]]],"numberofstrings":6,"notes":["E","B","G","D","A","E","B"],"capo":0,"stringnotes":["E4","B3","G3","D3","A2","E2"],"comments":["Stave 1:","Stave 2:","Stave 3:","Stave 4:"],"timing":[["W","W","W",null,"W","W","W","W",null,"W","W","W","W",null,"W"],["W","W","W","W","W",null,"W","W","W","W",null,"W","W","W","W",null,"W"],["W","W","W","W","W",null,"W",null,"W","W","W","W",null,"W",null,"W","W","W","W",null,"W",null,"W"],["W","W","W","W","W",null,"W",null,"W","W","W","W",null,"W",null,"W","W","W","W",null,"W",null,"W"]],"timingvisible":false,"tabcounter":23,"stave":3,"totalstaves":4,"instrument":"6guitar","selectedtuning":"6_standard","version":"13"}

Member for

9 months 3 weeks
Submitted by Super Signal on Tue, 2020-03-17 20:53