Morning Sunrise

Chords

01234567891011121314151617181920212223
E
B
G
D
A
E
B
0 1 2 3 4 5 6 7 8 9 10 11 12 13 14 15 16 17 18 19 20 21 22 23
(/) Slide Up  (\) Slide Down  (h) Hammer On  (p) Pull Off  (b) Bend (r) Release (v) Vibrato

Capo Fret 5

Stave 1:

E|--------------------------------------------------------------------------------------------------|-----|--
B|--------1--1--------1--1--------0--0--------0--0--------0--0--------0--0--------1--1--------1--1--|-----|--
G|--------0--0--------0--0--------0--0--------0--0--------0--0--------0--0--------2--2--------2--2--|-----|--
D|-----2-----------2-----------0-----------0-----------2-----------0-----------2-----------2--------|-----|--
A|--3-----------3-----------2-----------2-----------3-----------2-----------0-----------0-----------|--2--|--
E|--------------------------------------------------------------------------------------------------|-----|--

Stave 2:

E|--------------------------------------------------------------------------------------------------|-----|--
B|--------1--1--------1--1--------1--1--------1--1--------0--0--------0--0--------1--1--------0--0--|-----|--
G|--------2--2--------2--2--------0--0--------0--0--------0--0--------0--0--------2--2--------0--0--|-----|--
D|-----3-----------3-----------2-----------2-----------0-----------0-----------2-----------0--------|-----|--
A|--3-----------3-----------3-----------3-----------2-----------2-----------0-----------2-----------|--2--|--
E|--------------------------------------------------------------------------------------------------|-----|--

Stave 3:

E|-----------
B|--------1--
G|--------2--
D|-----3-----
A|--3--------
E|-----------

							http://www.guitartabcreator.com
Instruments
{"strings":[[[".",".",".",".",".",".",".",".",".",".",".",".",".",".",".",".",".",".",".",".",".",".",".",".",".",".",".",".",".",".",".",".","|",".","|"],[".",".",1,1,".",".",1,1,".",".",0,0,".",".",0,0,".",".",0,0,".",".",0,0,".",".",1,1,".",".",1,1,"|",".","|"],[".",".",0,0,".",".",0,0,".",".",0,0,".",".",0,0,".",".",0,0,".",".",0,0,".",".",2,2,".",".",2,2,"|",".","|"],[".",2,".",".",".",2,".",".",".",0,".",".",".",0,".",".",".",2,".",".",".",0,".",".",".",2,".",".",".",2,".",".","|",".","|"],[3,".",".",".",3,".",".",".",2,".",".",".",2,".",".",".",3,".",".",".",2,".",".",".",0,".",".",".",0,".",".",".","|",2,"|"],[".",".",".",".",".",".",".",".",".",".",".",".",".",".",".",".",".",".",".",".",".",".",".",".",".",".",".",".",".",".",".",".","|",".","|"]],[[".",".",".",".",".",".",".",".",".",".",".",".",".",".",".",".",".",".",".",".",".",".",".",".",".",".",".",".",".",".",".",".","|",".","|"],[".",".",1,1,".",".",1,1,".",".",1,1,".",".",1,1,".",".",0,0,".",".",0,0,".",".",1,1,".",".",0,0,"|",".","|"],[".",".",2,2,".",".",2,2,".",".",0,0,".",".",0,0,".",".",0,0,".",".",0,0,".",".",2,2,".",".",0,0,"|",".","|"],[".",3,".",".",".",3,".",".",".",2,".",".",".",2,".",".",".",0,".",".",".",0,".",".",".",2,".",".",".",0,".",".","|",".","|"],[3,".",".",".",3,".",".",".",3,".",".",".",3,".",".",".",2,".",".",".",2,".",".",".",0,".",".",".",2,".",".",".","|",2,"|"],[".",".",".",".",".",".",".",".",".",".",".",".",".",".",".",".",".",".",".",".",".",".",".",".",".",".",".",".",".",".",".",".","|",".","|"]],[[".",".","."],[".",".",1],[".",".",2],[".",3,"."],[3,".","."],[".",".","."]]],"numberofstrings":6,"notes":["E","B","G","D","A","E","B"],"capo":"5","stringnotes":["E4","B3","G3","D3","A2","E2"],"comments":["Stave 1:","Stave 2:","Stave 3:"],"timing":[["W","W","W","W","W","W","W","W","W","W","W","W","W","W","W","W","W","W","W","W","W","W","W","W","W","W","W","W","W","W","W","W",null,"W"],["W","W","W","W","W","W","W","W","W","W","W","W","W","W","W","W","W","W","W","W","W","W","W","W","W","W","W","W","W","W","W","W",null,"W"],["W","W","W"]],"timingvisible":false,"tabcounter":2,"stave":2,"totalstaves":3,"instrument":"6guitar","selectedtuning":"6_standard","version":"13"}

Member for

9 months 2 weeks
Submitted by Super Signal on Fri, 2020-10-02 18:51