Last Malfunction

Chords

01234567891011121314151617181920212223
E
B
G
D
A
E
B
0 1 2 3 4 5 6 7 8 9 10 11 12 13 14 15 16 17 18 19 20 21 22 23
(/) Slide Up  (\) Slide Down  (h) Hammer On  (p) Pull Off  (b) Bend (r) Release (v) Vibrato

Stave 1: do stave 1 and 2 twice then go to stave 3

A|--------------------------------------------------------------------------------------------------------------------------------
E|-----------4-----------4-----------4-----------4-----------4-----------4-----------6-----------6-----------4-----------4--------
G|-----5-----------5-----------5-----------3-----------3-----------5-----------5-----------5-----------5-----------5-----------5--
G|--0-----0-----0-----0-----0-----0-----0-----0-----0-----0-----0-----0-----0-----0-----0-----0-----0-----0-----0-----0-----0-----

Stave 2:

A|--------------------------------------------------------------------------------------------------|--------|--
E|-----4-----------4-----------6-----------8-----------8-----------6-----------4-----------4--------|--------|--
G|-----------3-----------3-----------3-----------3-----------3-----------3-----------3-----------3--|--x--2--|--
G|--0-----0-----0-----0-----0-----0-----0-----0-----0-----0-----0-----0-----0-----0-----0-----0-----|--------|--

Stave 3: repeat staves three and four twice but on the second time dont do the first 3 notes and only play the last 2 open notes on the 2nd repeat

A|-----------------------4-----------------------4--------|-----------------1-----------------------1--------|--
E|-----------------4-----------4-----------4-----------4--|-----------2-----------2-----------2-----------2--|--
G|-----------3-----------------------3--------------------|-----4-----------------------4--------------------|--
G|--4--4--4-----4-----4-----4-----4-----4-----4-----4-----|--4-----4-----4-----4-----4-----4-----4-----4-----|--

Stave 4: repeat everything twice and then go back to stave 1 and 2 and end the song at the end of them by slowing down the tempo

A|-----------------4-----------------------4--------|-----------------1-----------------------1--------------|--------|--
E|-----------3-----------3-----------3-----------3--|-----------4-----------4-----------4-----------4--------|--------|--
G|-----4-----------------------4--------------------|-----4-----------------------4--------------------------|--x--2--|--
G|--3-----3-----3-----3-----3-----3-----3-----3-----|--4-----4-----4-----4-----4-----4-----4-----4-----0--0--|--------|--

							http://www.guitartabcreator.com
Tab Notes
The Ukulele is actually tuned to GCEA not GGEA
Instruments
{"strings":[[[".",".",".",".",".",".",".",".",".",".",".",".",".",".",".",".",".",".",".",".",".",".",".",".",".",".",".",".",".",".",".",".",".",".",".",".",".",".",".",".",".","."],[".",".",".",4,".",".",".",4,".",".",".",4,".",".",".",4,".",".",".",4,".",".",".",4,".",".",".",6,".",".",".",6,".",".",".",4,".",".",".",4,".","."],[".",5,".",".",".",5,".",".",".",5,".",".",".",3,".",".",".",3,".",".",".",5,".",".",".",5,".",".",".",5,".",".",".",5,".",".",".",5,".",".",".",5],[0,".",0,".",0,".",0,".",0,".",0,".",0,".",0,".",0,".",0,".",0,".",0,".",0,".",0,".",0,".",0,".",0,".",0,".",0,".",0,".",0,"."]],[[".",".",".",".",".",".",".",".",".",".",".",".",".",".",".",".",".",".",".",".",".",".",".",".",".",".",".",".",".",".",".",".","|",".",".","|"],[".",4,".",".",".",4,".",".",".",6,".",".",".",8,".",".",".",8,".",".",".",6,".",".",".",4,".",".",".",4,".",".","|",".",".","|"],[".",".",".",3,".",".",".",3,".",".",".",3,".",".",".",3,".",".",".",3,".",".",".",3,".",".",".",3,".",".",".",3,"|","x",2,"|"],[0,".",0,".",0,".",0,".",0,".",0,".",0,".",0,".",0,".",0,".",0,".",0,".",0,".",0,".",0,".",0,".","|",".",".","|"]],[[".",".",".",".",".",".",".",4,".",".",".",".",".",".",".",4,".",".","|",".",".",".",".",".",1,".",".",".",".",".",".",".",1,".",".","|"],[".",".",".",".",".",4,".",".",".",4,".",".",".",4,".",".",".",4,"|",".",".",".",2,".",".",".",2,".",".",".",2,".",".",".",2,"|"],[".",".",".",3,".",".",".",".",".",".",".",3,".",".",".",".",".",".","|",".",4,".",".",".",".",".",".",".",4,".",".",".",".",".",".","|"],[4,4,4,".",4,".",4,".",4,".",4,".",4,".",4,".",4,".","|",4,".",4,".",4,".",4,".",4,".",4,".",4,".",4,".","|"]],[[".",".",".",".",".",4,".",".",".",".",".",".",".",4,".",".","|",".",".",".",".",".",1,".",".",".",".",".",".",".",1,".",".",".",".","|","_",".","|"],[".",".",".",3,".",".",".",3,".",".",".",3,".",".",".",3,"|",".",".",".",4,".",".",".",4,".",".",".",4,".",".",".",4,".",".","|","_",".","|"],[".",4,".",".",".",".",".",".",".",4,".",".",".",".",".",".","|",".",4,".",".",".",".",".",".",".",4,".",".",".",".",".",".",".",".","|","x",2,"|"],[3,".",3,".",3,".",3,".",3,".",3,".",3,".",3,".","|",4,".",4,".",4,".",4,".",4,".",4,".",4,".",4,".",0,0,"|","_",".","|"]]],"numberofstrings":4,"notes":["A","E","G","G"],"capo":0,"stringnotes":["A4","E4","C4","G3"],"comments":["Stave 1: do stave 1 and 2 twice then go to stave 3","Stave 2:","Stave 3: repeat staves three and four twice but on the second time dont do the first 3 notes and only play the last 2 open notes on the 2nd repeat","Stave 4: repeat everything twice and then go back to stave 1 and 2 and end the song at the end of them by slowing down the tempo"],"timing":[["W","W","W","W","W","W","W","W","W","W","W","W","W","W","W","W","W","W","W","W","W","W","W","W","W","W","W","W","W","W","W","W","W","W","W","W","W","W","W","W","W","W","W","W","W","W","W","W","W","W"],["W","W","W","W","W","W","W","W","W","W","W","W","W","W","W","W","W","W","W","W","W","W","W","W","W","W","W","W","W","W","W","W",null,"W",null,"W"],["W","W","W","W","W","W","W","W","W","W","W","W","W","W","W","W","W","W","W","W","W","W","W","W","W","W","W","W","W","W","W","W","W","W","W",null,null,"W"],["W","W","W","W","W","W","W","W","W","W","W","W","W","W","W","W",null,"W","W","W","W","W","W","W","W","W","W","W","W","W","W","W","W","W","W","W",null,"W"]],"timingvisible":false,"tabcounter":39,"stave":3,"totalstaves":4,"instrument":"ukulele","selectedtuning":"ukulele","version":"13"}

Member for

9 months 2 weeks
Submitted by Super Signal on Tue, 2020-07-21 17:28