Endless Journey

Chords

01234567891011121314151617181920212223
E
B
G
D
A
E
B
0 1 2 3 4 5 6 7 8 9 10 11 12 13 14 15 16 17 18 19 20 21 22 23
(/) Slide Up  (\) Slide Down  (h) Hammer On  (p) Pull Off  (b) Bend (r) Release (v) Vibrato

Capo Fret 3

Stave 1:

E|--------3--------1--------0--------3--------0--------1--------0--------5--------3--
B|-----3--------3--------1--------3--------1--------3--------1--------3--------3-----
G|--0--------0--------0--------0--------0--------0--------0--------0--------0--------
D|-----------------------------------------------------------------------------------
A|-----------------------------------------------------------------------------------
E|-----------------------------------------------------------------------------------

Stave 2:

E|-----------------------------------------------------------------------------------------------------------------------------------------------------
B|-----------3-----------0-----------1-----------0-----------3-----------1-----------0-----------3-----------5-----------0-----------5-----------3-----
G|--------0-----------0-----------0-----------0-----------0-----------0-----------0-----------0-----------0-----------0-----------0-----------0--------
D|-----2-----------2-----------2-----------0-----------2-----------2-----------0-----------2-----------2-----------4-----------4-----------4-----------
A|--3-----------3-----------3-----------3-----------3-----------3-----------3-----------3-----------3-----------5-----------5-----------5--------------
E|-----------------------------------------------------------------------------------------------------------------------------------------------------

Stave 3:

E|----------------------------------------------------------------------------------------------------------------------------------------------------
B|-----------0-----------1-----------0-----------3-----------1-----------0-----------3-----------5-----------0-----------5-----------7-----------7/8--
G|--------0-----------0-----------0-----------0-----------0-----------0-----------0-----------0-----------0-----------0-----------0-----------0-------
D|-----2-----------2-----------0-----------2-----------2-----------0-----------2-----------2-----------4-----------4-----------4-----------0----------
A|--3-----------3-----------3-----------3-----------3-----------3-----------3-----------3-----------5-----------5-----------5-----------0-------------
E|----------------------------------------------------------------------------------------------------------------------------------------------------

Stave 4:

E|--------------------------------------------------|--------|------------------------------------------------2--
B|-----------1-----------1-----------0-----------1--|--------|-----------1-----------1--------------------1p0h3--
G|--------2-----------0-----------0-----------2-----|--------|--------2-----------0-----------0--------2--2---2--
D|-----3-----------2-----------0-----------2--------|--x--3--|-----3-----------2-----------0--------2------------
A|--3-----------3-----------2-----------0-----------|--------|--3-----------3-----------2--------0---------------
E|--------------------------------------------------|--------|---------------------------------------------------

Stave 5: when you finish this repeat staves 2 and 3

E|--------3--------0--------1--------5--------3--
B|-----3--------1--------3--------3--------3-----
G|--0--------0--------0--------0--------0--------
D|-----------------------------------------------
A|-----------------------------------------------
E|-----------------------------------------------

Stave 6: when you finish this repeat stave 4 

E|--------------------------------------------------|--------|-----------------------------------------------------------------
B|-----------1-----------1-----------0-----------1--|--------|-----------1-----------1-----------0-----------1--------------0--
G|--------2-----------0-----------0-----------2-----|--------|--------2-----------0-----------0-----------2-----2--------0-----
D|-----3-----------2-----------0-----------2--------|--x--2--|-----3-----------2-----------0-----------2--------------0--------
A|--3-----------3-----------2-----------0-----------|--------|--3-----------3-----------2-----------0--------------2-----------
E|--------------------------------------------------|--------|-----------------------------------------------------------------

Stave 7: go back to staves 2 and 3 but for stave 3 do this then when you finish it repeat the melody one more time to end the song

E|----------------------------------------------------------------------------------------------------------------------------------------
B|-----------0-----------1-----------0-----------3-----------1-----------0-----------3-----------5-----------0-----------5-----------7\3--
G|--------0-----------0-----------0-----------0-----------0-----------0-----------0-----------0-----------0-----------0-----------0-------
D|-----2-----------2-----------0-----------2-----------2-----------0-----------2-----------2-----------4-----------4-----------4----------
A|--3-----------3-----------3-----------3-----------3-----------3-----------3-----------3-----------5-----------5-----------5-------------
E|----------------------------------------------------------------------------------------------------------------------------------------

							http://www.guitartabcreator.com
Instruments
{"strings":[[[".",".",3,".",".",1,".",".",0,".",".",3,".",".",0,".",".",1,".",".",0,".",".",5,".",".",3],[".",3,".",".",3,".",".",1,".",".",3,".",".",1,".",".",3,".",".",1,".",".",3,".",".",3,"."],[0,".",".",0,".",".",0,".",".",0,".",".",0,".",".",0,".",".",0,".",".",0,".",".",0,".","."],[".",".",".",".",".",".",".",".",".",".",".",".",".",".",".",".",".",".",".",".",".",".",".",".",".",".","."],[".",".",".",".",".",".",".",".",".",".",".",".",".",".",".",".",".",".",".",".",".",".",".",".",".",".","."],[".",".",".",".",".",".",".",".",".",".",".",".",".",".",".",".",".",".",".",".",".",".",".",".",".",".","."]],[[".",".",".",".",".",".",".",".",".",".",".",".",".",".",".",".",".",".",".",".",".",".",".",".",".",".",".",".",".",".",".",".",".",".",".",".",".",".",".",".",".",".",".",".",".",".",".",".","_"],[".",".",".",3,".",".",".",0,".",".",".",1,".",".",".",0,".",".",".",3,".",".",".",1,".",".",".",0,".",".",".",3,".",".",".",5,".",".",".",0,".",".",".",5,".",".",".",3,"_"],[".",".",0,".",".",".",0,".",".",".",0,".",".",".",0,".",".",".",0,".",".",".",0,".",".",".",0,".",".",".",0,".",".",".",0,".",".",".",0,".",".",".",0,".",".",".",0,".","_"],[".",2,".",".",".",2,".",".",".",2,".",".",".",0,".",".",".",2,".",".",".",2,".",".",".",0,".",".",".",2,".",".",".",2,".",".",".",4,".",".",".",4,".",".",".",4,".",".","_"],[3,".",".",".",3,".",".",".",3,".",".",".",3,".",".",".",3,".",".",".",3,".",".",".",3,".",".",".",3,".",".",".",3,".",".",".",5,".",".",".",5,".",".",".",5,".",".",".","_"],[".",".",".",".",".",".",".",".",".",".",".",".",".",".",".",".",".",".",".",".",".",".",".",".",".",".",".",".",".",".",".",".",".",".",".",".",".",".",".",".",".",".",".",".",".",".",".",".","_"]],[[".",".",".",".",".",".",".",".",".",".",".",".",".",".",".",".",".",".",".",".",".",".",".",".",".",".",".",".",".",".",".",".",".",".",".",".",".",".",".",".",".",".",".",".",".",".",".",".",".","."],[".",".",".",0,".",".",".",1,".",".",".",0,".",".",".",3,".",".",".",1,".",".",".",0,".",".",".",3,".",".",".",5,".",".",".",0,".",".",".",5,".",".",".",7,".",".",".",7,"/",8],[".",".",0,".",".",".",0,".",".",".",0,".",".",".",0,".",".",".",0,".",".",".",0,".",".",".",0,".",".",".",0,".",".",".",0,".",".",".",0,".",".",".",0,".",".",".",0,".",".","."],[".",2,".",".",".",2,".",".",".",0,".",".",".",2,".",".",".",2,".",".",".",0,".",".",".",2,".",".",".",2,".",".",".",4,".",".",".",4,".",".",".",4,".",".",".",0,".",".",".","."],[3,".",".",".",3,".",".",".",3,".",".",".",3,".",".",".",3,".",".",".",3,".",".",".",3,".",".",".",3,".",".",".",5,".",".",".",5,".",".",".",5,".",".",".",0,".",".",".",".","."],[".",".",".",".",".",".",".",".",".",".",".",".",".",".",".",".",".",".",".",".",".",".",".",".",".",".",".",".",".",".",".",".",".",".",".",".",".",".",".",".",".",".",".",".",".",".",".",".",".","."]],[[".",".",".",".",".",".",".",".",".",".",".",".",".",".",".",".","|",".",".","|",".",".",".",".",".",".",".",".",".",".",".",".",".",".",".",".",".",".",2],[".",".",".",1,".",".",".",1,".",".",".",0,".",".",".",1,"|",".",".","|",".",".",".",1,".",".",".",1,".",".",".",".",".",".",1,"p",0,"h",3],[".",".",2,".",".",".",0,".",".",".",0,".",".",".",2,".","|",".",".","|",".",".",2,".",".",".",0,".",".",".",0,".",".",2,2,".",".",".",2],[".",3,".",".",".",2,".",".",".",0,".",".",".",2,".",".","|","x",3,"|",".",3,".",".",".",2,".",".",".",0,".",".",2,".",".",".",".",".","."],[3,".",".",".",3,".",".",".",2,".",".",".",0,".",".",".","|",".",".","|",3,".",".",".",3,".",".",".",2,".",".",0,".",".",".",".",".",".","."],[".",".",".",".",".",".",".",".",".",".",".",".",".",".",".",".","|",".",".","|",".",".",".",".",".",".",".",".",".",".",".",".",".",".",".",".",".",".","."]],[[".",".",3,".",".",0,".",".",1,".",".",5,".",".",3],[".",3,".",".",1,".",".",3,".",".",3,".",".",3,"."],[0,".",".",0,".",".",0,".",".",0,".",".",0,".","."],[".",".",".",".",".",".",".",".",".",".",".",".",".",".","."],[".",".",".",".",".",".",".",".",".",".",".",".",".",".","."],[".",".",".",".",".",".",".",".",".",".",".",".",".",".","."]],[[".",".",".",".",".",".",".",".",".",".",".",".",".",".",".",".","|",".",".","|",".",".",".",".",".",".",".",".",".",".",".",".",".",".",".",".",".",".",".",".","."],[".",".",".",1,".",".",".",1,".",".",".",0,".",".",".",1,"|",".",".","|",".",".",".",1,".",".",".",1,".",".",".",0,".",".",".",1,".",".",".",".",0],[".",".",2,".",".",".",0,".",".",".",0,".",".",".",2,".","|",".",".","|",".",".",2,".",".",".",0,".",".",".",0,".",".",".",2,".",2,".",".",0,"."],[".",3,".",".",".",2,".",".",".",0,".",".",".",2,".",".","|","x",2,"|",".",3,".",".",".",2,".",".",".",0,".",".",".",2,".",".",".",".",0,".","."],[3,".",".",".",3,".",".",".",2,".",".",".",0,".",".",".","|",".",".","|",3,".",".",".",3,".",".",".",2,".",".",".",0,".",".",".",".",2,".",".","."],[".",".",".",".",".",".",".",".",".",".",".",".",".",".",".",".","|",".",".","|",".",".",".",".",".",".",".",".",".",".",".",".",".",".",".",".",".",".",".",".","."]],[[".",".",".",".",".",".",".",".",".",".",".",".",".",".",".",".",".",".",".",".",".",".",".",".",".",".",".",".",".",".",".",".",".",".",".",".",".",".",".",".",".",".",".",".",".","."],[".",".",".",0,".",".",".",1,".",".",".",0,".",".",".",3,".",".",".",1,".",".",".",0,".",".",".",3,".",".",".",5,".",".",".",0,".",".",".",5,".",".",".",7,"\\",3],[".",".",0,".",".",".",0,".",".",".",0,".",".",".",0,".",".",".",0,".",".",".",0,".",".",".",0,".",".",".",0,".",".",".",0,".",".",".",0,".",".",".",0,".",".","."],[".",2,".",".",".",2,".",".",".",0,".",".",".",2,".",".",".",2,".",".",".",0,".",".",".",2,".",".",".",2,".",".",".",4,".",".",".",4,".",".",".",4,".",".",".","."],[3,".",".",".",3,".",".",".",3,".",".",".",3,".",".",".",3,".",".",".",3,".",".",".",3,".",".",".",3,".",".",".",5,".",".",".",5,".",".",".",5,".",".",".",".","."],[".",".",".",".",".",".",".",".",".",".",".",".",".",".",".",".",".",".",".",".",".",".",".",".",".",".",".",".",".",".",".",".",".",".",".",".",".",".",".",".",".",".",".",".",".","."]]],"numberofstrings":6,"notes":["E","B","G","D","A","E","B"],"capo":"3","stringnotes":["E4","B3","G3","D3","A2","E2"],"comments":["Stave 1:","Stave 2:","Stave 3:","Stave 4:","Stave 5: when you finish this repeat staves 2 and 3","Stave 6: when you finish this repeat stave 4 ","Stave 7: go back to staves 2 and 3 but for stave 3 do this then when you finish it repeat the melody one more time to end the song","Stave 8:"],"timing":[["W","W","W","W","W","W","W","W","W","W","W","W","W","W","W","W","W","W","W","W","W","W","W","W","W","W","W"],["W","W","W","W","W","W","W","W","W","W","W","W","W","W","W","W","W","W","W","W","W","W","W","W","W","W","W","W","W","W","W","W","W","W","W","W","W","W","W","W","W","W","W","W","W","W","W","W"],["W","W","W","W","W","W","W","W","W","W","W","W","W","W","W","W","W","W","W","W","W","W","W","W","W","W","W","W","W","W","W","W","W","W","W","W","W","W","W","W","W","W","W","W","W","W","W","W",null,"W"],["W","W","W","W","W","W","W","W","W","W","W","W","W","W","W","W",null,"W",null,null,"W","W","W","W","W","W","W","W","W","W","W","W","W","W","W","W","W","W","W"],["W","W","W","W","W","W","W","W","W","W","W","W","W","W","W"],["W","W","W","W","W","W","W","W","W","W","W","W","W","W","W","W",null,"W",null,"W","W","W","W","W","W","W","W","W","W","W","W","W","W","W","W","W","W","W","W","W","W"],["W","W","W","W","W","W","W","W","W","W","W","W","W","W","W","W","W","W","W","W","W","W","W","W","W","W","W","W","W","W","W","W","W","W","W","W","W","W","W","W","W","W","W","W",null,"W"],["W","W","W","W",null,"W"]],"timingvisible":false,"tabcounter":46,"stave":6,"totalstaves":7,"instrument":"6guitar","selectedtuning":"6_standard","version":"13"}

Member for

9 months 2 weeks
Submitted by Super Signal on Sun, 2020-08-02 17:34