Dream Phase (unfinished)

Chords

01234567891011121314151617181920212223
E
B
G
D
A
E
B
0 1 2 3 4 5 6 7 8 9 10 11 12 13 14 15 16 17 18 19 20 21 22 23
(/) Slide Up  (\) Slide Down  (h) Hammer On  (p) Pull Off  (b) Bend (r) Release (v) Vibrato

Capo Fret 2

Stave 1: stave 1 is first part of song

E|--------------------------------------------------------------------------------------------------------------------------------------------------
B|-----1--------1--------0--------1--------1--------1--------0--------1--------1--------0--------0--------1--------1--------0--------0--------1-----
G|--------2--------0--------0--------2--------2--------0--------0--------2--------2--------0--------0--------2--------2--------0--------0--------2--
D|--3--------3--------0--------3--------3--------3--------0--------3--------3--------3--------0--------3--------3--------3--------0--------3--------
A|--------------------------------------------------------------------------------------------------------------------------------------------------
E|--------------------------------------------------------------------------------------------------------------------------------------------------

 Stave 2: stave 2 and 3 are the second part of song

E|--------------------------------------------------------------------------
B|-----1--------1--------0--------1--------1--------1--------0--------1-----
G|--------2--------0--------0--------0--------2--------0--------0--------2--
D|--3--------2--------0--------2--------3--------2--------0--------3--------
A|--------------------------------------------------------------------------
E|--------------------------------------------------------------------------

Stave 3:

E|--------------------------------------------------------------------------
B|-----1--------0--------0--------1--------1--------1--------0--------1-----
G|--------2--------0--------0--------2--------2--------0--------0--------2--
D|--3--------2--------0--------3--------3--------0--------2--------3--------
A|--------------------------------------------------------------------------
E|--------------------------------------------------------------------------

							http://www.guitartabcreator.com
Instruments
{"strings":[[[".",".",".",".",".",".",".",".",".",".",".",".",".",".",".",".",".",".",".",".",".",".",".",".",".",".",".",".",".",".",".",".",".",".",".",".",".",".",".",".",".",".",".",".",".",".",".","."],[".",1,".",".",1,".",".",0,".",".",1,".",".",1,".",".",1,".",".",0,".",".",1,".",".",1,".",".",0,".",".",0,".",".",1,".",".",1,".",".",0,".",".",0,".",".",1,"."],[".",".",2,".",".",0,".",".",0,".",".",2,".",".",2,".",".",0,".",".",0,".",".",2,".",".",2,".",".",0,".",".",0,".",".",2,".",".",2,".",".",0,".",".",0,".",".",2],[3,".",".",3,".",".",0,".",".",3,".",".",3,".",".",3,".",".",0,".",".",3,".",".",3,".",".",3,".",".",0,".",".",3,".",".",3,".",".",3,".",".",0,".",".",3,".","."],[".",".",".",".",".",".",".",".",".",".",".",".",".",".",".",".",".",".",".",".",".",".",".",".",".",".",".",".",".",".",".",".",".",".",".",".",".",".",".",".",".",".",".",".",".",".",".","."],[".",".",".",".",".",".",".",".",".",".",".",".",".",".",".",".",".",".",".",".",".",".",".",".",".",".",".",".",".",".",".",".",".",".",".",".",".",".",".",".",".",".",".",".",".",".",".","."]],[[".",".",".",".",".",".",".",".",".",".",".",".",".",".",".",".",".",".",".",".",".",".",".","."],[".",1,".",".",1,".",".",0,".",".",1,".",".",1,".",".",1,".",".",0,".",".",1,"."],[".",".",2,".",".",0,".",".",0,".",".",0,".",".",2,".",".",0,".",".",0,".",".",2],[3,".",".",2,".",".",0,".",".",2,".",".",3,".",".",2,".",".",0,".",".",3,".","."],[".",".",".",".",".",".",".",".",".",".",".",".",".",".",".",".",".",".",".",".",".",".",".","."],[".",".",".",".",".",".",".",".",".",".",".",".",".",".",".",".",".",".",".",".",".",".",".","."]],[[".",".",".",".",".",".",".",".",".",".",".",".",".",".",".",".",".",".",".",".",".",".",".","."],[".",1,".",".",0,".",".",0,".",".",1,".",".",1,".",".",1,".",".",0,".",".",1,"."],[".",".",2,".",".",0,".",".",0,".",".",2,".",".",2,".",".",0,".",".",0,".",".",2],[3,".",".",2,".",".",0,".",".",3,".",".",3,".",".",0,".",".",2,".",".",3,".","."],[".",".",".",".",".",".",".",".",".",".",".",".",".",".",".",".",".",".",".",".",".",".",".","."],[".",".",".",".",".",".",".",".",".",".",".",".",".",".",".",".",".",".",".",".",".",".",".","."]]],"numberofstrings":6,"notes":["E","B","G","D","A","E","B"],"capo":"2","stringnotes":["E4","B3","G3","D3","A2","E2"],"comments":["Stave 1: stave 1 is first part of song"," Stave 2: stave 2 and 3 are the second part of song","Stave 3:"],"timing":[["W","W","W","W","W","W","W","W","W","W","W","W","W","W","W","W","W","W","W","W","W","W","W","W","W","W","W","W","W","W","W","W","W","W","W","W","W","W","W","W","W","W","W","W","W","W","W","W"],["W","W","W","W","W","W","W","W","W","W","W","W","W","W","W","W","W","W","W","W","W","W","W","W"],["W","W","W","W","W","W","W","W","W","W","W","W","W","W","W","W","W","W","W","W","W","W","W","W"]],"timingvisible":false,"tabcounter":24,"stave":2,"totalstaves":3,"instrument":"6guitar","selectedtuning":"6_standard","version":"13"}

Member for

9 months 2 weeks
Submitted by Super Signal on Sun, 2020-09-13 18:27