Cave Theme

Chords

01234567891011121314151617181920212223
E
B
G
D
A
E
B
0 1 2 3 4 5 6 7 8 9 10 11 12 13 14 15 16 17 18 19 20 21 22 23
(/) Slide Up  (\) Slide Down  (h) Hammer On  (p) Pull Off  (b) Bend (r) Release (v) Vibrato

Capo Fret 4

Stave 1:

E|--------------------------------------------------------------------------
B|--------1--------1--------1--------1--------1--------1--------1--------1--
G|-----3--------3--------3--------3--------3--------3--------3--------3-----
D|--5--------5--------3--------3--------5--------5--------3--------1--------
A|--------------------------------------------------------------------------
E|--------------------------------------------------------------------------

Stave 2:

E|--------------------------------------------------------------------------
B|--------1--------1--------1--------1--------1--------1--------1--------1--
G|-----3--------3--------3--------3--------3--------3--------3--------0-----
D|--5--------5--------3--------3--------5--------5--------3--------2--------
A|--------------------------------------------------------------------------
E|--------------------------------------------------------------------------

							http://www.guitartabcreator.com
Instruments
{"strings":[[[".",".",".",".",".",".",".",".",".",".",".",".",".",".",".",".",".",".",".",".",".",".",".","."],[".",".",1,".",".",1,".",".",1,".",".",1,".",".",1,".",".",1,".",".",1,".",".",1],[".",3,".",".",3,".",".",3,".",".",3,".",".",3,".",".",3,".",".",3,".",".",3,"."],[5,".",".",5,".",".",3,".",".",3,".",".",5,".",".",5,".",".",3,".",".",1,".","."],[".",".",".",".",".",".",".",".",".",".",".",".",".",".",".",".",".",".",".",".",".",".",".","."],[".",".",".",".",".",".",".",".",".",".",".",".",".",".",".",".",".",".",".",".",".",".",".","."]],[[".",".",".",".",".",".",".",".",".",".",".",".",".",".",".",".",".",".",".",".",".",".",".","."],[".",".",1,".",".",1,".",".",1,".",".",1,".",".",1,".",".",1,".",".",1,".",".",1],[".",3,".",".",3,".",".",3,".",".",3,".",".",3,".",".",3,".",".",3,".",".",0,"."],[5,".",".",5,".",".",3,".",".",3,".",".",5,".",".",5,".",".",3,".",".",2,".","."],[".",".",".",".",".",".",".",".",".",".",".",".",".",".",".",".",".",".",".",".",".",".",".","."],[".",".",".",".",".",".",".",".",".",".",".",".",".",".",".",".",".",".",".",".",".",".",".","."]]],"numberofstrings":6,"notes":["E","B","G","D","A","E","B"],"capo":"4","stringnotes":["E4","B3","G3","D3","A2","E2"],"comments":["Stave 1:","Stave 2:"],"timing":[["W","W","W","W","W","W","W","W","W","W","W","W","W","W","W","W","W","W","W","W","W","W","W","W"],["W","W","W","W","W","W","W","W","W","W","W","W","W","W","W","W","W","W","W","W","W","W","W","W"]],"timingvisible":false,"tabcounter":24,"stave":1,"totalstaves":2,"instrument":"6guitar","selectedtuning":"6_standard","version":"13"}

Member for

9 months 3 weeks
Submitted by Super Signal on Thu, 2020-10-15 14:21