Adventure's End

Chords

01234567891011121314151617181920212223
E
B
G
D
A
E
B
0 1 2 3 4 5 6 7 8 9 10 11 12 13 14 15 16 17 18 19 20 21 22 23
(/) Slide Up  (\) Slide Down  (h) Hammer On  (p) Pull Off  (b) Bend (r) Release (v) Vibrato

Capo Fret 4

Stave 1: x2

E|--------------------------------------------
B|--------1-----------0--------0-----------1--
G|-----2-----2-----0--------0-----0-----2-----
D|--3-----------0--------0-----------3--------
A|--------------------------------------------
E|--------------------------------------------

Stave 2:

E|--------------------------------------
B|--------1--------3--------5--------7--
G|-----2--------4--------6--------8-----
D|--3--------5--------7--------9--------
A|--------------------------------------
E|--------------------------------------

Stave 3: x2

E|-----------0-----------------0-----------------0-----------------0--------
B|--------1-----1-----------0-----0-----------1-----1-----------3-----3-----
G|-----2-----------2-----0-----------0-----2-----------2-----4-----------4--
D|--3-----------------0-----------------3-----------------5-----------------
A|--------------------------------------------------------------------------
E|--------------------------------------------------------------------------

Stave 4: Everything is shifted down by 1 string, I can't rewrite it because I noticed it late.

E|-------------------------------------------------------
B|-------------------------------------------------------
G|--------1--0--------3--1--------1--0--------3\1--0--1--
D|-----2-----------4-----------2-----------4-------------
A|--3-----------5-----------3-----------5----------------
E|-------------------------------------------------------

Stave 5: x4

E|--------------------------------------------
B|--------1-----------0--------0-----------1--
G|-----2-----2-----0--------0-----0-----2-----
D|--3-----------0--------0-----------3--------
A|--------------------------------------------
E|--------------------------------------------

							http://www.guitartabcreator.com
Tab Notes

The first 4 staves are played twice and after they are played twice the 5th stave is played.

Instruments
{"strings":[[[".",".",".",".",".",".",".",".",".",".",".",".",".","."],[".",".",1,".",".",".",0,".",".",0,".",".",".",1],[".",2,".",2,".",0,".",".",0,".",0,".",2,"."],[3,".",".",".",0,".",".",0,".",".",".",3,".","."],[".",".",".",".",".",".",".",".",".",".",".",".",".","."],[".",".",".",".",".",".",".",".",".",".",".",".",".","."]],[[".",".",".",".",".",".",".",".",".",".",".","."],[".",".",1,".",".",3,".",".",5,".",".",7],[".",2,".",".",4,".",".",6,".",".",8,"."],[3,".",".",5,".",".",7,".",".",9,".","."],[".",".",".",".",".",".",".",".",".",".",".","."],[".",".",".",".",".",".",".",".",".",".",".","."]],[[".",".",".",0,".",".",".",".",".",0,".",".",".",".",".",0,".",".",".",".",".",0,".","."],[".",".",1,".",1,".",".",".",0,".",0,".",".",".",1,".",1,".",".",".",3,".",3,"."],[".",2,".",".",".",2,".",0,".",".",".",0,".",2,".",".",".",2,".",4,".",".",".",4],[3,".",".",".",".",".",0,".",".",".",".",".",3,".",".",".",".",".",5,".",".",".",".","."],[".",".",".",".",".",".",".",".",".",".",".",".",".",".",".",".",".",".",".",".",".",".",".","."],[".",".",".",".",".",".",".",".",".",".",".",".",".",".",".",".",".",".",".",".",".",".",".","."]],[[".",".",".",".",".",".",".",".",".",".",".",".",".",".",".",".",".",".","."],[".",".",".",".",".",".",".",".",".",".",".",".",".",".",".",".",".",".","."],[".",".",1,0,".",".",3,1,".",".",1,0,".",".",3,"\\",1,0,1],[".",2,".",".",".",4,".",".",".",2,".",".",".",4,".",".",".",".","."],[3,".",".",".",5,".",".",".",3,".",".",".",5,".",".",".",".",".","."],[".",".",".",".",".",".",".",".",".",".",".",".",".",".",".",".",".",".","."]],[[".",".",".",".",".",".",".",".",".",".",".",".",".","."],[".",".",1,".",".",".",0,".",".",0,".",".",".",1],[".",2,".",2,".",0,".",".",0,".",0,".",2,"."],[3,".",".",".",0,".",".",0,".",".",".",3,".","."],[".",".",".",".",".",".",".",".",".",".",".",".",".","."],[".",".",".",".",".",".",".",".",".",".",".",".",".","."]]],"numberofstrings":6,"notes":["E","B","G","D","A","E","B"],"capo":"4","stringnotes":["E4","B3","G3","D3","A2","E2"],"comments":["Stave 1: x2","Stave 2:","Stave 3: x2","Stave 4: Everything is shifted down by 1 string, I can't rewrite it because I noticed it late.","Stave 5: x4"],"timing":[["W","W","W","W","W","W","W","W","W","W","W","W","W","W"],["W","W","W","W","W","W","W","W","W","W","W","W"],["W","W","W","W","W","W","W","W","W","W","W","W","W","W","W","W","W","W","W","W","W","W","W","W"],["W","W","W","W","W","W","W","W","W","W","W","W","W","W","W",null,"W","W","W"],["W","W","W","W","W","W","W","W","W","W","W","W","W","W"]],"timingvisible":false,"tabcounter":14,"stave":4,"totalstaves":5,"instrument":"6guitar","selectedtuning":"6_standard","version":"13"}

Member for

9 months 3 weeks
Submitted by Super Signal on Fri, 2020-04-24 21:25