Sound will begin in 5 seconds

stairway solo

01234567891011121314151617181920212223
E
B
G
D
A
E
B
0 1 2 3 4 5 6 7 8 9 10 11 12 13 14 15 16 17 18 19 20 21 22 23
Song Science #1: How Pros Use 6 Chords to Write Hit Songs
(/) Slide Up  (\) Slide Down  (h) Hammer On  (p) Pull Off  (b) Bend (r) Release (v) Vibrato

Stave 1:

E|---------5---------------------------------
B|-------------8p5---------------------------
G|---7b9-------------7p5-------7p5-----------
D|-------------------------7---------7p5/3---
A|-------------------------------------------
E|-------------------------------------------

Stave 2:

E|----------8---8---8b10---10r8---5----------5---8---
B|---8b10-----------------------------8b10-----------
G|---------------------------------------------------
D|---------------------------------------------------
A|---------------------------------------------------
E|---------------------------------------------------

Stave 3:

E|---10p8----------------------
B|----------10p8--------8h10---
G|-----------------10----------
D|-----------------------------
A|-----------------------------
E|-----------------------------

Stave 4:

E|---------5-------------------------------
B|-------------8p5-------------------------
G|---7b9-------------7p5-------7p5---------
D|-------------------------7---------7p5---
A|-----------------------------------------
E|-----------------------------------------

Stave 5:

E|-----------------------------
B|-----------------------------
G|---------------5---5---5p0---
D|-------5---7-----------------
A|---7-------------------------
E|-----------------------------

Stave 6:

E|---5---------------------------------------
B|-------8p5---------------------------------
G|-------------7p5-------7p5-----------------
D|-------------------7---------7p5---7p5/3---
A|-------------------------------------------
E|-------------------------------------------

Stave 7:

E|----------------------------------------------------8---
B|-------------6-----------------------8-------8h10-------
G|---------5-------7p5-------5---7/9-------9--------------
D|---5/7-----------------7--------------------------------
A|--------------------------------------------------------
E|--------------------------------------------------------

Stave 8:

E|---10b12r10---8---10---8---15b17r15---15---13----------------------------------
B|------------------------------------------------15b17r15---15---13--------13---
G|---------------------------------------------------------------------14--------
D|-------------------------------------------------------------------------------
A|-------------------------------------------------------------------------------
E|-------------------------------------------------------------------------------

Stave 9:

E|---------------------------15b17---
B|---15b17r15p13--------13-----------
G|-----------------14----------------
D|-----------------------------------
A|-----------------------------------
E|-----------------------------------

http://www.guitartabcreator.com
Guitar Tab Creator is intended to store guitar tab created through the tool. It currently does not support in-line text editing. Any text you place in here will be lost. If you need to comment on your tab, please use the "Tab Notes" section located below.