In Any Tongue (Live at Pompeii) - David Gilmour

01234567891011121314151617181920212223
E
B
G
D
A
E
B
0 1 2 3 4 5 6 7 8 9 10 11 12 13 14 15 16 17 18 19 20 21 22 23
(/) Slide Up  (\) Slide Down  (h) Hammer On  (p) Pull Off  (b) Bend (r) Release (v) Vibrato

Stave 1:

E|--------------|-----------------------------|------------|-------------------|--------------------------|-
B|-18b20v----18-|-----16-18b20----20b21r20-18-|------------|-9-11-11b13-9------|--------------------------|-
G|--------------|-/17-------------------------|-----8-8/10-|--------------10-8-|-10p8---------------------|-
D|--------------|-----------------------------|-/10--------|-------------------|------10-10-10b11r10p8-10-|-
A|--------------|-----------------------------|------------|-------------------|--------------------------|-
E|--------------|-----------------------------|------------|-------------------|--------------------------|-

Stave 2:

E|---------------------------|-------------|------|-------|-13-15-15b16-|-15b16r15p13----|-
B|---------------------------|-------------|------|-------|-------------|-------------16-|-
G|------10-12b13v-b13r12-12v-|-12b13r12-10-|-/8-8-|-5h8-5-|-------------|----------------|-
D|-0/10----------------------|-------------|------|-------|-------------|----------------|-
A|---------------------------|-------------|------|-------|-------------|----------------|-
E|---------------------------|-------------|------|-------|-------------|----------------|-

Stave 3:

E|-----------------|--------------------------------|-------------|-
B|-13-16b18r16-16v-|-11b13r11p9-11v----b13r11p9-11v-|-13-16b18r16-|-
G|-----------------|--------------------------------|-------------|-
D|-----------------|--------------------------------|-------------|-
A|-----------------|--------------------------------|-------------|-
E|-----------------|--------------------------------|-------------|-

Stave 4:

E|----------------------------------------------|----------13-15----------------|-------------|-
B|-16b18-16-16b18r16-18r16p13----13----13-13-13-|-13-13-16-------16-13----13----|-16b18r16-13-|-
G|----------------------------15----15----------|----------------------15----15-|-------------|-
D|----------------------------------------------|-------------------------------|-------------|-
A|----------------------------------------------|-------------------------------|-------------|-
E|----------------------------------------------|-------------------------------|-------------|-

Stave 5:

E|-15b16-|-15b16r15p13----|------------------|-----------------------|---------|-
B|-------|-------------16-|-11b13r11p9-11b13-|-----9h11-11b13r11p9\8-|---------|-
G|-------|----------------|------------------|-/10-------------------|-10p8-10-|-
D|-------|----------------|------------------|-----------------------|---------|-
A|-------|----------------|------------------|-----------------------|---------|-
E|-------|----------------|------------------|-----------------------|---------|-

Stave 6:

E|-----------------------------|--------------------|---------------------|----------|-
B|---------9-----------------9-|-11p9-11b13-11p9----|---------------------|----------|-
G|-10p8-10---10p8-10-10p8-10---|-----------------10-|-8-------------8-8-8-|-8-8-8/10-|-
D|-----------------------------|--------------------|---10\8-6-8/10-------|----------|-
A|-----------------------------|--------------------|---------------------|----------|-
E|-----------------------------|--------------------|---------------------|----------|-

Stave 7:

E|-----------------11---------|-----------|-----------------|-------13-15-16-18-|-
B|------9-11-11b13----13r11p9-|-16-16-16v-|-p13-16b18r16-16-|-16b18-------------|-
G|-8/10-----------------------|-----------|-----------------|-------------------|-
D|----------------------------|-----------|-----------------|-------------------|-
A|----------------------------|-----------|-----------------|-------------------|-
E|----------------------------|-----------|-----------------|-------------------|-

Stave 8:

E|-18b20v-|-18b20r18-18b20-18b20-20-|-------------------------|-------------------|-
B|--------|-------------------------|-18-18-18b20----18b20r18-|-16-16-16----16-16-|-
G|--------|-------------------------|-------------------------|-------------------|-
D|--------|-------------------------|-------------------------|-------------------|-
A|--------|-------------------------|-------------------------|-------------------|-
E|--------|-------------------------|-------------------------|-------------------|-

Stave 9:

E|-----------------------------------------------------------------------------------------------------------|-
B|-13-16-18-18-13-13-16-16-13-13-18-18-13-13-16-16-13-13-18-18-13-13-16-16-13-13-18-18-13-13-16-16-13-13-16v-|-
G|-----------------------------------------------------------------------------------------------------------|-
D|-----------------------------------------------------------------------------------------------------------|-
A|-----------------------------------------------------------------------------------------------------------|-
E|-----------------------------------------------------------------------------------------------------------|-

Stave 10:

E|-----------------------------------|--------------------------------------|------------|-
B|-16-16-16-15-15-13-13--------------|--------------------------------------|------------|-
G|----------------------15-13-12-13v-|-13\12-12-10-10-8-8-------------------|------------|-
D|-----------------------------------|--------------------10-10-8-8\6-5-----|------------|-
A|-----------------------------------|----------------------------------8-6-|-/6-6-8p6-6\|-
E|-----------------------------------|--------------------------------------|------------|-

Stave 11:

E|-----------|---|--------------------|------------11------------11b13r11-|------------|-
B|-----------|---|-----9-11b13r11p9-9-|-11p9-11b13----11b13r11p9----------|-11b13r11p9-|-
G|---------6\|-6-|-/10----------------|-----------------------------------|------------|-
D|-----6-8---|---|--------------------|-----------------------------------|------------|-
A|-0/6-------|---|--------------------|-----------------------------------|------------|-
E|-----------|---|--------------------|-----------------------------------|------------|-

Stave 12:

E|-----------|------------------------------|---------------------------|---------------------|-
B|-11b13r11v-|-11b13r11b13-13-13-13-13r11p9-|-11b13-13-13-13-13-13r11p9-|-11b13-13r11p9-11b13-|-
G|-----------|------------------------------|---------------------------|---------------------|-
D|-----------|------------------------------|---------------------------|---------------------|-
A|-----------|------------------------------|---------------------------|---------------------|-
E|-----------|------------------------------|---------------------------|---------------------|-

Stave 13:

E|------------|-------|--------|-----13-15-15b16v-|-16r15p13-15b16-16r15p13----|---------|-
B|-13r11p9-11-|-p9-11-|-11p9-9-|-/13--------------|-------------------------16-|-p13-16v-|-
G|------------|-------|--------|------------------|----------------------------|---------|-
D|------------|-------|--------|------------------|----------------------------|---------|-
A|------------|-------|--------|------------------|----------------------------|---------|-
E|------------|-------|--------|------------------|----------------------------|---------|-

Stave 14:

E|---------------------|-------------------|----------------------------|----------|-
B|-0/13-16-16b18r16-13-|-------13-13-13-13-|----------------------------|----------|-
G|---------------------|-15p13-13-13-13-13-|-13h15p13-15b17-17r15p13-15-|-15p13-13-|-
D|---------------------|-------------------|----------------------------|----------|-
A|---------------------|-------------------|----------------------------|----------|-
E|---------------------|-------------------|----------------------------|----------|-

Stave 15:

E|-----|-----15-16-18b20-20r18p16-18-|-----------|---|-
B|-16v-|-18v-------------------------|-----------|---|-
G|-----|-----------------------------|-----------|---|-
D|-----|-----------------------------|-----------|-3-|-
A|-----|-----------------------------|-----------|-3-|-
E|-----|-----------------------------|-12\0-12\0-|-1-|-

							http://www.guitartabcreator.com
Chords

Instruments
{"strings":[[[".",".",".",".","_",".","|",".",".",".",".",".",".","_",".",".",".",".",".",".","|",".",".",".",".",".",".","|",".",".",".",".",".",".",".",".","|",".",".",".",".",".",".",".",".",".",".",".",".",".","|"],[18,"b",20,"v","_",18,"|",".",".",16,18,"b",20,"_",20,"b",21,"r",20,18,"|",".",".",".",".",".",".","|",9,11,11,"b",13,9,".",".","|",".",".",".",".",".",".",".",".",".",".",".",".",".","|"],[".",".",".",".","_",".","|","/",17,".",".",".",".","_",".",".",".",".",".",".","|",".",".",8,8,"/",10,"|",".",".",".",".",".",".",10,8,"|",10,"p",8,".",".",".",".",".",".",".",".",".",".","|"],[".",".",".",".","_",".","|",".",".",".",".",".",".","_",".",".",".",".",".",".","|","/",10,".",".",".",".","|",".",".",".",".",".",".",".",".","|",".",".",".",10,10,10,"b",11,"r",10,"p",8,10,"|"],[".",".",".",".","_",".","|",".",".",".",".",".",".","_",".",".",".",".",".",".","|",".",".",".",".",".",".","|",".",".",".",".",".",".",".",".","|",".",".",".",".",".",".",".",".",".",".",".",".",".","|"],[".",".",".",".","_",".","|",".",".",".",".",".",".","_",".",".",".",".",".",".","|",".",".",".",".",".",".","|",".",".",".",".",".",".",".",".","|",".",".",".",".",".",".",".",".",".",".",".",".",".","|"]],[[".",".",".",".",".",".",".",".",".",".",".",".",".",".","|",".",".",".",".",".",".","|",".",".",".","|",".",".",".",".","|",13,15,15,"b",16,"|",15,"b",16,"r",15,"p",13,".","|"],[".",".",".",".",".",".",".",".",".",".",".",".",".",".","|",".",".",".",".",".",".","|",".",".",".","|",".",".",".",".","|",".",".",".",".",".","|",".",".",".",".",".",".",".",16,"|"],[".",".",".",10,12,"b",13,"v","b",13,"r",12,12,"v","|",12,"b",13,"r",12,10,"|","/",8,8,"|",5,"h",8,5,"|",".",".",".",".",".","|",".",".",".",".",".",".",".",".","|"],[0,"/",10,".",".",".",".",".",".",".",".",".",".",".","|",".",".",".",".",".",".","|",".",".",".","|",".",".",".",".","|",".",".",".",".",".","|",".",".",".",".",".",".",".",".","|"],[".",".",".",".",".",".",".",".",".",".",".",".",".",".","|",".",".",".",".",".",".","|",".",".",".","|",".",".",".",".","|",".",".",".",".",".","|",".",".",".",".",".",".",".",".","|"],[".",".",".",".",".",".",".",".",".",".",".",".",".",".","|",".",".",".",".",".",".","|",".",".",".","|",".",".",".",".","|",".",".",".",".",".","|",".",".",".",".",".",".",".",".","|"]],[[".",".",".",".",".",".",".",".","|",".",".",".",".",".",".",".",".",".","_",".",".",".",".",".",".",".",".","|",".",".",".",".",".",".","|"],[13,16,"b",18,"r",16,16,"v","|",11,"b",13,"r",11,"p",9,11,"v","_","b",13,"r",11,"p",9,11,"v","|",13,16,"b",18,"r",16,"|"],[".",".",".",".",".",".",".",".","|",".",".",".",".",".",".",".",".",".","_",".",".",".",".",".",".",".",".","|",".",".",".",".",".",".","|"],[".",".",".",".",".",".",".",".","|",".",".",".",".",".",".",".",".",".","_",".",".",".",".",".",".",".",".","|",".",".",".",".",".",".","|"],[".",".",".",".",".",".",".",".","|",".",".",".",".",".",".",".",".",".","_",".",".",".",".",".",".",".",".","|",".",".",".",".",".",".","|"],[".",".",".",".",".",".",".",".","|",".",".",".",".",".",".",".",".",".","_",".",".",".",".",".",".",".",".","|",".",".",".",".",".",".","|"]],[[".",".",".",".",".",".",".",".",".",".",".",".",".",".",".",".",".",".",".",".","|",".",".",".",13,15,".",".",".",".",".","|",".",".",".",".",".",".","|"],[16,"b",18,16,16,"b",18,"r",16,18,"r",16,"p",13,".",13,".",13,13,13,"|",13,13,16,".",".",16,13,".",13,".","|",16,"b",18,"r",16,13,"|"],[".",".",".",".",".",".",".",".",".",".",".",".",".",".",15,".",15,".",".",".","|",".",".",".",".",".",".",".",15,".",15,"|",".",".",".",".",".",".","|"],[".",".",".",".",".",".",".",".",".",".",".",".",".",".",".",".",".",".",".",".","|",".",".",".",".",".",".",".",".",".",".","|",".",".",".",".",".",".","|"],[".",".",".",".",".",".",".",".",".",".",".",".",".",".",".",".",".",".",".",".","|",".",".",".",".",".",".",".",".",".",".","|",".",".",".",".",".",".","|"],[".",".",".",".",".",".",".",".",".",".",".",".",".",".",".",".",".",".",".",".","|",".",".",".",".",".",".",".",".",".",".","|",".",".",".",".",".",".","|"]],[[15,"b",16,"|",15,"b",16,"r",15,"p",13,".","|",".",".",".",".",".",".",".",".",".",".","|",".",".",".",".",".",".",".",".",".",".",".",".",".",".","|",".",".",".",".","|"],[".",".",".","|",".",".",".",".",".",".",".",16,"|",11,"b",13,"r",11,"p",9,11,"b",13,"|",".",".",9,"h",11,11,"b",13,"r",11,"p",9,"\\",8,"|",".",".",".",".","|"],[".",".",".","|",".",".",".",".",".",".",".",".","|",".",".",".",".",".",".",".",".",".",".","|","/",10,".",".",".",".",".",".",".",".",".",".",".",".","|",10,"p",8,10,"|"],[".",".",".","|",".",".",".",".",".",".",".",".","|",".",".",".",".",".",".",".",".",".",".","|",".",".",".",".",".",".",".",".",".",".",".",".",".",".","|",".",".",".",".","|"],[".",".",".","|",".",".",".",".",".",".",".",".","|",".",".",".",".",".",".",".",".",".",".","|",".",".",".",".",".",".",".",".",".",".",".",".",".",".","|",".",".",".",".","|"],[".",".",".","|",".",".",".",".",".",".",".",".","|",".",".",".",".",".",".",".",".",".",".","|",".",".",".",".",".",".",".",".",".",".",".",".",".",".","|",".",".",".",".","|"]],[[".",".",".",".",".",".",".",".",".",".",".",".",".",".","|",".",".",".",".",".",".",".",".",".",".","|",".",".",".",".",".",".",".",".",".",".",".","|",".",".",".",".",".","|"],[".",".",".",".",9,".",".",".",".",".",".",".",".",9,"|",11,"p",9,11,"b",13,11,"p",9,".","|",".",".",".",".",".",".",".",".",".",".",".","|",".",".",".",".",".","|"],[10,"p",8,10,".",10,"p",8,10,10,"p",8,10,".","|",".",".",".",".",".",".",".",".",".",10,"|",8,".",".",".",".",".",".",".",8,8,8,"|",8,8,8,"/",10,"|"],[".",".",".",".",".",".",".",".",".",".",".",".",".",".","|",".",".",".",".",".",".",".",".",".",".","|",".",10,"\\",8,6,8,"/",10,".",".",".","|",".",".",".",".",".","|"],[".",".",".",".",".",".",".",".",".",".",".",".",".",".","|",".",".",".",".",".",".",".",".",".",".","|",".",".",".",".",".",".",".",".",".",".",".","|",".",".",".",".",".","|"],[".",".",".",".",".",".",".",".",".",".",".",".",".",".","|",".",".",".",".",".",".",".",".",".",".","|",".",".",".",".",".",".",".",".",".",".",".","|",".",".",".",".",".","|"]],[[".",".",".",".",".",".",".",".",11,".",".",".",".",".","|",".",".",".",".","|",".",".",".",".",".",".",".",".","|",".",".",".",13,15,16,18,"|"],[".",".",".",9,11,11,"b",13,".",13,"r",11,"p",9,"|",16,16,16,"v","|","p",13,16,"b",18,"r",16,16,"|",16,"b",18,".",".",".",".","|"],[8,"/",10,".",".",".",".",".",".",".",".",".",".",".","|",".",".",".",".","|",".",".",".",".",".",".",".",".","|",".",".",".",".",".",".",".","|"],[".",".",".",".",".",".",".",".",".",".",".",".",".",".","|",".",".",".",".","|",".",".",".",".",".",".",".",".","|",".",".",".",".",".",".",".","|"],[".",".",".",".",".",".",".",".",".",".",".",".",".",".","|",".",".",".",".","|",".",".",".",".",".",".",".",".","|",".",".",".",".",".",".",".","|"],[".",".",".",".",".",".",".",".",".",".",".",".",".",".","|",".",".",".",".","|",".",".",".",".",".",".",".",".","|",".",".",".",".",".",".",".","|"]],[[18,"b",20,"v","|",18,"b",20,"r",18,18,"b",20,18,"b",20,20,"|",".",".",".",".",".","_",".",".",".",".",".","|",".",".",".","_",".",".","|"],[".",".",".",".","|",".",".",".",".",".",".",".",".",".",".",".",".","|",18,18,18,"b",20,"_",18,"b",20,"r",18,"|",16,16,16,"_",16,16,"|"],[".",".",".",".","|",".",".",".",".",".",".",".",".",".",".",".",".","|",".",".",".",".",".","_",".",".",".",".",".","|",".",".",".","_",".",".","|"],[".",".",".",".","|",".",".",".",".",".",".",".",".",".",".",".",".","|",".",".",".",".",".","_",".",".",".",".",".","|",".",".",".","_",".",".","|"],[".",".",".",".","|",".",".",".",".",".",".",".",".",".",".",".",".","|",".",".",".",".",".","_",".",".",".",".",".","|",".",".",".","_",".",".","|"],[".",".",".",".","|",".",".",".",".",".",".",".",".",".",".",".",".","|",".",".",".",".",".","_",".",".",".",".",".","|",".",".",".","_",".",".","|"]],[[".",".",".",".",".",".",".",".",".",".",".",".",".",".",".",".",".",".",".",".",".",".",".",".",".",".",".",".",".",".",".",".",".",".",".",".","|"],[13,16,18,18,13,13,16,16,13,13,18,18,13,13,16,16,13,13,18,18,13,13,16,16,13,13,18,18,13,13,16,16,13,13,16,"v","|"],[".",".",".",".",".",".",".",".",".",".",".",".",".",".",".",".",".",".",".",".",".",".",".",".",".",".",".",".",".",".",".",".",".",".",".",".","|"],[".",".",".",".",".",".",".",".",".",".",".",".",".",".",".",".",".",".",".",".",".",".",".",".",".",".",".",".",".",".",".",".",".",".",".",".","|"],[".",".",".",".",".",".",".",".",".",".",".",".",".",".",".",".",".",".",".",".",".",".",".",".",".",".",".",".",".",".",".",".",".",".",".",".","|"],[".",".",".",".",".",".",".",".",".",".",".",".",".",".",".",".",".",".",".",".",".",".",".",".",".",".",".",".",".",".",".",".",".",".",".",".","|"]],[[".",".",".",".",".",".",".",".",".",".",".",".","|",".",".",".",".",".",".",".",".",".",".",".",".",".",".",".",".",".","|",".",".",".",".",".",".",".",".","|"],[16,16,16,15,15,13,13,".",".",".",".",".","|",".",".",".",".",".",".",".",".",".",".",".",".",".",".",".",".",".","|",".",".",".",".",".",".",".",".","|"],[".",".",".",".",".",".",".",15,13,12,13,"v","|",13,"\\",12,12,10,10,8,8,".",".",".",".",".",".",".",".",".","|",".",".",".",".",".",".",".",".","|"],[".",".",".",".",".",".",".",".",".",".",".",".","|",".",".",".",".",".",".",".",".",10,10,8,8,"\\",6,5,".",".","|",".",".",".",".",".",".",".",".","|"],[".",".",".",".",".",".",".",".",".",".",".",".","|",".",".",".",".",".",".",".",".",".",".",".",".",".",".",".",8,6,"|","/",6,6,8,"p",6,6,"\\","|"],[".",".",".",".",".",".",".",".",".",".",".",".","|",".",".",".",".",".",".",".",".",".",".",".",".",".",".",".",".",".","|",".",".",".",".",".",".",".",".","|"]],[[".",".",".",".",".",".",".","|",".","|",".",".",".",".",".",".",".",".",".",".",".","|",".",".",".",".",".",".",11,".",".",".",".",".",".",".",11,"b",13,"r",11,"|",".",".",".",".",".",".",".","|"],[".",".",".",".",".",".",".","|",".","|",".",".",9,11,"b",13,"r",11,"p",9,9,"|",11,"p",9,11,"b",13,".",11,"b",13,"r",11,"p",9,".",".",".",".",".","|",11,"b",13,"r",11,"p",9,"|"],[".",".",".",".",".",6,"\\","|",6,"|","/",10,".",".",".",".",".",".",".",".",".","|",".",".",".",".",".",".",".",".",".",".",".",".",".",".",".",".",".",".",".","|",".",".",".",".",".",".",".","|"],[".",".",".",6,8,".",".","|",".","|",".",".",".",".",".",".",".",".",".",".",".","|",".",".",".",".",".",".",".",".",".",".",".",".",".",".",".",".",".",".",".","|",".",".",".",".",".",".",".","|"],[0,"/",6,".",".",".",".","|",".","|",".",".",".",".",".",".",".",".",".",".",".","|",".",".",".",".",".",".",".",".",".",".",".",".",".",".",".",".",".",".",".","|",".",".",".",".",".",".",".","|"],[".",".",".",".",".",".",".","|",".","|",".",".",".",".",".",".",".",".",".",".",".","|",".",".",".",".",".",".",".",".",".",".",".",".",".",".",".",".",".",".",".","|",".",".",".",".",".",".",".","|"]],[[".",".",".",".",".",".","|",".",".",".",".",".",".",".",".",".",".",".",".",".",".",".","|",".",".",".",".",".",".",".",".",".",".",".",".","|",".",".",".",".",".",".",".",".",".",".",".","|"],[11,"b",13,"r",11,"v","|",11,"b",13,"r",11,"b",13,13,13,13,13,"r",11,"p",9,"|",11,"b",13,13,13,13,13,13,"r",11,"p",9,"|",11,"b",13,13,"r",11,"p",9,11,"b",13,"|"],[".",".",".",".",".",".","|",".",".",".",".",".",".",".",".",".",".",".",".",".",".",".","|",".",".",".",".",".",".",".",".",".",".",".",".","|",".",".",".",".",".",".",".",".",".",".",".","|"],[".",".",".",".",".",".","|",".",".",".",".",".",".",".",".",".",".",".",".",".",".",".","|",".",".",".",".",".",".",".",".",".",".",".",".","|",".",".",".",".",".",".",".",".",".",".",".","|"],[".",".",".",".",".",".","|",".",".",".",".",".",".",".",".",".",".",".",".",".",".",".","|",".",".",".",".",".",".",".",".",".",".",".",".","|",".",".",".",".",".",".",".",".",".",".",".","|"],[".",".",".",".",".",".","|",".",".",".",".",".",".",".",".",".",".",".",".",".",".",".","|",".",".",".",".",".",".",".",".",".",".",".",".","|",".",".",".",".",".",".",".",".",".",".",".","|"]],[[".",".",".",".",".",".","|",".",".",".","|",".",".",".",".","|",".",".",13,15,15,"b",16,"v","|",16,"r",15,"p",13,15,"b",16,16,"r",15,"p",13,".","|",".",".",".",".","|"],[13,"r",11,"p",9,11,"|","p",9,11,"|",11,"p",9,9,"|","/",13,".",".",".",".",".",".","|",".",".",".",".",".",".",".",".",".",".",".",".",".",16,"|","p",13,16,"v","|"],[".",".",".",".",".",".","|",".",".",".","|",".",".",".",".","|",".",".",".",".",".",".",".",".","|",".",".",".",".",".",".",".",".",".",".",".",".",".",".","|",".",".",".",".","|"],[".",".",".",".",".",".","|",".",".",".","|",".",".",".",".","|",".",".",".",".",".",".",".",".","|",".",".",".",".",".",".",".",".",".",".",".",".",".",".","|",".",".",".",".","|"],[".",".",".",".",".",".","|",".",".",".","|",".",".",".",".","|",".",".",".",".",".",".",".",".","|",".",".",".",".",".",".",".",".",".",".",".",".",".",".","|",".",".",".",".","|"],[".",".",".",".",".",".","|",".",".",".","|",".",".",".",".","|",".",".",".",".",".",".",".",".","|",".",".",".",".",".",".",".",".",".",".",".",".",".",".","|",".",".",".",".","|"]],[[".",".",".",".",".",".",".",".",".",".","|",".",".",".",".",".",".",".","|",".",".",".",".",".",".",".",".",".",".",".",".",".",".","|",".",".",".",".","|"],[0,"/",13,16,16,"b",18,"r",16,13,"|",".",".",".",13,13,13,13,"|",".",".",".",".",".",".",".",".",".",".",".",".",".",".","|",".",".",".",".","|"],[".",".",".",".",".",".",".",".",".",".","|",15,"p",13,13,13,13,13,"|",13,"h",15,"p",13,15,"b",17,17,"r",15,"p",13,15,"|",15,"p",13,13,"|"],[".",".",".",".",".",".",".",".",".",".","|",".",".",".",".",".",".",".","|",".",".",".",".",".",".",".",".",".",".",".",".",".",".","|",".",".",".",".","|"],[".",".",".",".",".",".",".",".",".",".","|",".",".",".",".",".",".",".","|",".",".",".",".",".",".",".",".",".",".",".",".",".",".","|",".",".",".",".","|"],[".",".",".",".",".",".",".",".",".",".","|",".",".",".",".",".",".",".","|",".",".",".",".",".",".",".",".",".",".",".",".",".",".","|",".",".",".",".","|"]],[[".",".","|",".",".",15,16,18,"b",20,20,"r",18,"p",16,18,"|",".",".",".",".",".",".","|",".","|"],[16,"v","|",18,"v",".",".",".",".",".",".",".",".",".",".",".","|",".",".",".",".",".",".","|",".","|"],[".",".","|",".",".",".",".",".",".",".",".",".",".",".",".",".","|",".",".",".",".",".",".","|",".","|"],[".",".","|",".",".",".",".",".",".",".",".",".",".",".",".",".","|",".",".",".",".",".",".","|",3,"|"],[".",".","|",".",".",".",".",".",".",".",".",".",".",".",".",".","|",".",".",".",".",".",".","|",3,"|"],[".",".","|",".",".",".",".",".",".",".",".",".",".",".",".",".","|",12,"\\",0,12,"\\",0,"|",1,"|"]]],"numberofstrings":6,"notes":["E","B","G","D","A","E","B"],"capo":0,"stringnotes":["E4","B3","G3","D3","A2","E2"],"comments":["Stave 1:","Stave 2:","Stave 3:","Stave 4:","Stave 5:","Stave 6:","Stave 7:","Stave 8:","Stave 9:","Stave 10:","Stave 11:","Stave 12:","Stave 13:","Stave 14:","Stave 15:","Stave 16:","Stave 17:","Stave 18:"],"timing":[["W",null,"W",null,"W","W","W","W","W","W","W",null,"W","W","W","W","W",null,"W","W",null,"W","W","W","W",null,"W","W","W","W","W","W","W","W","W","W","W","W",null,"W","W","W","W",null,"W",null,"W","W","W","W"],["W",null,"W","W","W",null,"W",null,null,"W",null,"W","W",null,null,"W",null,"W",null,"W","W",null,"W","W","W",null,"W",null,"W","W",null,"W","W","W",null,"W",null,"W",null,"W",null,"W",null,"W","W"],["W","W",null,"W",null,"W","W",null,null,"W",null,"W",null,"W",null,"W","W",null,null,null,"W",null,"W",null,"W","W",null,null,"W","W",null,"W",null,"W","W",null,"W","W","W",null,"W",null,"W","W","W","W",null,"W",null,"W","W"],["W","W","W","W","W",null,"W",null,"W","W",null,"W",null,"W","W","W","W","W","W","W",null,"W","W","W","W","W","W","W","W","W","W",null,"W",null,"W",null,"W","W"],["W",null,"W",null,"W",null,"W",null,"W",null,"W","W",null,"W",null,"W",null,"W","W","W","W","W","W","W","W","W","W","W","W","W",null,"W",null,"W",null,"W",null,"W",null,"W","W","W","W",null,"W",null,"W","W","W","W"],["W",null,"W","W","W","W",null,"W","W","W",null,"W","W","W","W","W","W","W","W",null,"W","W","W","W","W","W","W","W","W","W","W","W",null,"W","W","W","W",null,"W","W","W",null,"W"],["W",null,"W","W","W","W",null,"W","W","W",null,"W",null,"W",null,"W","W","W","W",null,"W","W","W","W","W","W","W","W",null,"W",null,"W","W","W","W","W"],["W",null,"W",null,null,"W",null,"W",null,"W","W",null,"W","W",null,"W","W",null,"W","W","W",null,"W",null,"W",null,"W",null,"W",null,"W","W","W",null,"W","W"],["W","W","W","W","W","W","W","W","W","W","W","W","W","W","W","W","W","W","W","W","W","W","W","W","W","W","W","W","W","W","W","W","W","W","W"],["W","W","W","W","W","W","W","W","W","W","W",null,null,"W",null,"W","W","W","W","W","W","W","W","W","W","W","W","W","W","W",null,null,"W","W","W",null,"W","W"],["W",null,"W","W","W","W",null,null,"W",null,"W","W","W","W",null,"W",null,"W",null,"W","W",null,"W",null,"W","W",null,"W","W","W",null,"W",null,"W",null,"W","W",null,"W",null,"W",null,"W",null,"W",null,"W",null,"W","W"],["W",null,"W",null,"W",null,null,"W",null,"W",null,"W",null,"W","W","W","W","W",null,"W",null,"W",null,"W",null,"W","W","W","W","W","W",null,"W",null,"W","W","W",null,"W","W",null,"W",null,"W","W",null,"W"],["W",null,"W",null,"W","W",null,null,"W","W",null,"W",null,"W","W",null,"W","W","W","W","W",null,"W",null,null,"W",null,"W",null,"W","W",null,"W","W",null,"W",null,"W","W",null,null,"W","W"],["W",null,"W","W","W",null,"W",null,"W","W",null,"W",null,"W","W","W","W","W",null,"W",null,"W","W","W","W",null,"W","W",null,"W",null,"W","W",null,"W",null,"W","W"],["W",null,null,"W",null,"W","W","W",null,"W","W",null,"W",null,"W","W",null,"W",null,"W","W",null,"W",null,"W"],[],[],[]],"timingvisible":false,"tabcounter":26,"stave":14,"totalstaves":15,"instrument":"6guitar","selectedtuning":"6_standard","version":"13"}

Member for

2 years 5 months
Submitted by strattonaight on Mon, 2021-02-22 23:44