voodoo child

Chords
01234567891011121314151617181920212223
E
B
G
D
A
E
B
0 1 2 3 4 5 6 7 8 9 10 11 12 13 14 15 16 17 18 19 20 21 22 23
(/) Slide Up  (\) Slide Down  (h) Hammer On  (p) Pull Off  (b) Bend (r) Release (v) Vibrato

E|---------------------------------
B|---------------------------------
G|--7\9--7-----7-------------------
D|----------9-----5--5--7----------
A|-------------------------5\7-----
E|---------------------------------



E|----------------
B|----------------
G|--7h9--7-----9--
D|----------9-----
A|----------------
E|----------------



E|------------------------------
B|------------------------------
G|--7\9--7-----7----------------
D|----------9-----5--5--7-------
A|-------------------------5\7--
E|------------------------------



E|--------------------------------------------------------------------------------------
B|-------------10b12--10--8-------------------------------------------------------------
G|--9--0--7--9/--------------9--1--1----------2b4p0--------------14b16--14--14b16--12v--
D|------------------------------2--2-----0h2--------------------------------------------
A|------------------------------2--2----------------------------------------------------
E|------------------------------------3--------------0--0--0--0-------------------------



E|--
B|--
G|--
D|--
A|--
E|--
							http://www.guitartabcreator.com
[[],[],[],[],[],[]]

Member for

6 years 9 months
Submitted by stocky111 on Thu, 2013-08-29 00:06