Sound will begin in 5 seconds

Four day creep solo

01234567891011121314151617181920212223
E
B
G
D
A
E
B
0 1 2 3 4 5 6 7 8 9 10 11 12 13 14 15 16 17 18 19 20 21 22 23
Song Science #1: How Pros Use 6 Chords to Write Hit Songs
(/) Slide Up  (\) Slide Down  (h) Hammer On  (p) Pull Off  (b) Bend (r) Release (v) Vibrato

Stave 1:

E|----------------------------------------------------------------------------
B|----------14h15p14----14h15p14----14h15p14----14----------------------------
G|-13-14-16----------16----------16----------16----16-14-16-12b---------------
D|-------------------------------------------------------------14-12----------
A|-------------------------------------------------------------------14-12\10-
E|----------------------------------------------------------------------------

Stave 2:

E|----------------------------------------------------------
B|----------------------------------------------14h15p14----
G|-0-1-0-1-----------------------------13-14-16----------16-
D|---------2-0-------------------14-16----------------------
A|-------------2-0------------------------------------------
E|-----------------3h4-3h4-3h4-0----------------------------

Stave 3:

E|-
B|-
G|-
D|-
A|-
E|-

Stave 4:

E|-------------------------------------------------------------------------
B|-12-------------------------------------------------------12-14-15-14-12-
G|----12-11----11----------------------------------11-13-14----------------
D|----------12----12----------------12-12----12-14-------------------------
A|-------------------14-13-12-10-14-------14-------------------------------
E|-------------------------------------------------------------------------

http://www.guitartabcreator.com
Guitar Tab Creator is intended to store guitar tab created through the tool. It currently does not support in-line text editing. Any text you place in here will be lost. If you need to comment on your tab, please use the "Tab Notes" section located below.