che male

Chords

01234567891011121314151617181920212223
E
B
G
D
A
E
B
0 1 2 3 4 5 6 7 8 9 10 11 12 13 14 15 16 17 18 19 20 21 22 23
(/) Slide Up  (\) Slide Down  (h) Hammer On  (p) Pull Off  (b) Bend (r) Release (v) Vibrato

Capo Fret 2

Stave 1:

E|--------------|-----------------|--------------|----------------------------------
B|--------------|-----------------|--------------|----------------------------------
G|-----------2--|--4--2--0--------|-----------2--|--4--2--0--------2h4--2--0--------
D|--------0-----|-----------4--2--|--------0-----|-----------4--2-------------4--2--
A|--2--4--------|-----------------|--2--4--------|----------------------------------
E|--------------|-----------------|--------------|----------------------------------

Stave 2:

E|------------------------------|---------------------------5--6--7--
B|-----2h3--0--2-----2h3--0--2--|-----2h3--0--2-----2h3--0-----------
G|--3-------------3-------------|--3-------------3-------------------
D|------------------------------|------------------------------------
A|------------------------------|------------------------------------
E|------------------------------|------------------------------------

							http://www.guitartabcreator.com
Instruments
{"strings":[[[".",".",".",".","|",".",".",".",".",".","|",".",".",".",".","|",".",".",".",".",".",".",".",".",".",".",".","."],[".",".",".",".","|",".",".",".",".",".","|",".",".",".",".","|",".",".",".",".",".",".",".",".",".",".",".","."],[".",".",".",2,"|",4,2,0,".",".","|",".",".",".",2,"|",4,2,0,".",".",2,"h",4,2,0,".","."],[".",".",0,".","|",".",".",".",4,2,"|",".",".",0,".","|",".",".",".",4,2,".",".",".",".",".",4,2],[2,4,".",".","|",".",".",".",".",".","|",2,4,".",".","|",".",".",".",".",".",".",".",".",".",".",".","."],[".",".",".",".","|",".",".",".",".",".","|",".",".",".",".","|",".",".",".",".",".",".",".",".",".",".",".","."]],[[".",".",".",".",".",".",".",".",".",".",".",".","|",".",".",".",".",".",".",".",".",".",".",".",5,6,7],[".",2,"h",3,0,2,".",2,"h",3,0,2,"|",".",2,"h",3,0,2,".",2,"h",3,0,".",".","."],[3,".",".",".",".",".",3,".",".",".",".",".","|",3,".",".",".",".",".",3,".",".",".",".",".",".","."],[".",".",".",".",".",".",".",".",".",".",".",".","|",".",".",".",".",".",".",".",".",".",".",".",".",".","."],[".",".",".",".",".",".",".",".",".",".",".",".","|",".",".",".",".",".",".",".",".",".",".",".",".",".","."],[".",".",".",".",".",".",".",".",".",".",".",".","|",".",".",".",".",".",".",".",".",".",".",".",".",".","."]]],"numberofstrings":6,"notes":["E","B","G","D","A","E","B"],"capo":"2","stringnotes":["E4","B3","G3","D3","A2","E2"],"comments":["Stave 1:","Stave 2:"],"timing":[["W","W","W","W",null,"W","W","W","W","W",null,"W","W","W","W",null,"W","W","W","W","W","W",null,"W","W","W","W","W"],["W","W",null,"W","W","W","W","W",null,"W","W","W",null,"W","W",null,"W","W","W","W","W",null,"W","W","W","W","W"]],"timingvisible":false,"tabcounter":27,"stave":1,"totalstaves":2,"instrument":"6guitar","selectedtuning":"6_standard","version":"13"}

Member for

6 months 3 weeks
Submitted by steven57 on Tue, 2020-09-15 09:30