Sound will begin in 5 seconds

Nothing Ever Hurts Like You

01234567891011121314151617181920212223
E
B
G
D
A
E
B
0 1 2 3 4 5 6 7 8 9 10 11 12 13 14 15 16 17 18 19 20 21 22 23
Song Science #1: How Pros Use 6 Chords to Write Hit Songs
(/) Slide Up  (\) Slide Down  (h) Hammer On  (p) Pull Off  (b) Bend (r) Release (v) Vibrato

Stave 1:

E|-----------------------------|-----------2--------2--------|-----------------------------|--
B|-----------------------------|-----------3-----2--3--------|-----------------------------|--
G|-----------------------------|-----------4--4--6--4--2--4--|-----------------------------|--
D|--------------7--9---11--9---|-----------4--6--7--4--4--2--|--------------7--9---11--9---|--
A|--4--7--4--9--9--11--12--11--|-----------2--2-----2--2--2--|--4--7--4--9--9--11--12--11--|--
E|-----------2---------2-------|--7--9--2--------------------|-----------2---------2-------|--

Stave 2:

E|--------------|------|--------------|---------------
B|--------------|------|--------------|--2------------
G|--7--6--9--8--|--10--|-----9--7--4--|--2--9--7--11--
D|--7--7--9--8--|--11--|--4--9--7--4--|--4--9--7--11--
A|--5--7--7--6--|--8---|--4--7--5--2--|--4--7--5--9---
E|-----5--------|------|--2-----------|--2--------2---

http://www.guitartabcreator.com
Guitar Tab Creator is intended to store guitar tab created through the tool. It currently does not support in-line text editing. Any text you place in here will be lost. If you need to comment on your tab, please use the "Tab Notes" section located below.