Sound will begin in 5 seconds

Smooth R&B 2-5 Em 68 bpm Tab - Lick #2, by Stel Andre

01234567891011121314151617181920212223
E
B
G
D
A
E
B
0 1 2 3 4 5 6 7 8 9 10 11 12 13 14 15 16 17 18 19 20 21 22 23
Song Science #1: How Pros Use 6 Chords to Write Hit Songs
(/) Slide Up  (\) Slide Down  (h) Hammer On  (p) Pull Off  (b) Bend (r) Release (v) Vibrato

Stave 1:

E|-----------------------------------------------------------------------------------------------------
B|-----------------------------------------------------------------------------------------------------
G|--14--16--0--0--12--14--0--0--11--12--0--0-----------------------------------------------------------
D|--------------------------------------------15\14--14r12---------------------------------------------
A|----------------------------------------------------------14--12--13\12--10----------12/14--10--12v--
E|-----------------------------------------------------------------------------12--10------------------

Stave 2:

E|--------------------------------------------------------------------------|--
B|--------------------------------------------------------------------------|--
G|--------------------------------------------------------------------------|--
D|------------------------10/12------------------------12--14h14/15\14r12v--|--
A|--10--12h12r--10\9--10---------10--12h12r--10\9--10-----------------------|--
E|--------------------------------------------------------------------------|--

Stave 3:

E|--------------------------------------------------------------------------------------------------------
B|-------------------------------------------------------------15-----------------------------------------
G|---------11--12--11b12--12r11--12--12/14-------------------------14/16--16\14--12--12--11---------------
D|------------------------------------------15\14--12--12--12--------------------------------12/14/16\14--
A|--12/14-------------------------------------------------------------------------------------------------
E|--------------------------------------------------------------------------------------------------------

http://www.guitartabcreator.com
Guitar Tab Creator is intended to store guitar tab created through the tool. It currently does not support in-line text editing. Any text you place in here will be lost. If you need to comment on your tab, please use the "Tab Notes" section located below.