Sound will begin in 5 seconds

Nothing I've Ever Known

Chords
01234567891011121314151617181920212223
E
B
G
D
A
E
B
0 1 2 3 4 5 6 7 8 9 10 11 12 13 14 15 16 17 18 19 20 21 22 23
Song Science #1: How Pros Use 6 Chords to Write Hit Songs
(/) Slide Up  (\) Slide Down  (h) Hammer On  (p) Pull Off  (b) Bend (r) Release (v) Vibrato

Stave 1:

E|--2--4--5--4--------4--2--------0-----------------------------------------------------------------------
B|-----------------------------3-----3--5--------------2--3--------3--2--0-----2-----------2--3-----------
G|--------------2--2--------2--------------------2--4--------------4-----2--1-----------2--------------1--
D|-----------2-----------0--------------------2-----------------4--4-----2--2--------2--------------0-----
A|-----------------------------------------4-----------------2-----0-----2--2-----0--------------2--------
E|-----------------------------------------------------------------------0--0-----------------------------

Stave 2:

E|--------------------------------------------------------------------------------0--------------------
B|--3--5--------------0--2--3-----------3--3--2--0-----------------------------------3--5-----2--------
G|--------------4--2-----------------4-----4-----2--2--1-----------2--4-----------------------------2--
D|-----------2--------------------4--------4-----2-----2--4-----4-----------6--2-----------2-----2-----
A|--------4--------------------2-----------2-----2-----2-----5-----------5--------------4--------------
E|-----------------------------------------------0-----0-----------------------------------------------

Stave 3:

E|--------------------------------------------------------------------------------------------------------
B|--------2--3-----------3--2--3--------2--0--2--------------------------------------5--3--5-----------2--
G|--2--4--------------4--------------1-----------------2--2--1--2-----------2--4--------------------4-----
D|-----------------4-----------------0--------------2-----------2--4-----4-----6--2--------------2--------
A|--------------2--------------------------------0--------------0-----5--------5--------------4-----------
E|--------------------------------0-----------------------------------------------------------------------

Stave 4:

E|-----------------------------------------------------------0--------------------------------------
B|-----------2--0--------------------------0--------------2--2-----5--4--5-----------5-----5--4--5--
G|--2--2--4-----------------2--1-----1--2-----2--------2-----2--------------------6-----------------
D|--4--------------------2--------------------------2--------2--6--------------6--------6-----------
A|--4-----------------2--------------------------0-----------0--------------4-----------------------
E|--2--------------0--------------0-----------------------------------------------------------------

Stave 5:

E|--------------------------------------------------------4--------------------------------------
B|--------5-----5--4--5--------5--7--------7--9--------5--------9--7--9-----------9-----9--7--9--
G|-----6--------------------------------------------4--------4-----------------9-----------------
D|--4--------7--------------6-----------4-----------------------------------9--------9-----------
A|-----------------------4-----------6-----------7-----------------------7-----------------------
E|-----------------------------------------------------------------------------------------------

Stave 6:

E|-----------------------------------------------------------------7------7-----------7--------------
B|-----------9-----9--7--9--------9--10---------10--7--------7--------10-----------7-----------------
G|--------9-----4-----------------------------------9-----9-----4---------------8-----------8--9-----
D|-----9-----------------------9------------11------9--9---------------------6-----------6-----------
A|--6------------------------------------9-----------------------------------------------------------
E|--------------------------9-----------------------7---------------------------------------------9--

Stave 7:

E|-----------------------------------------------------------------------------------------------0--2--4--
B|--------9-----7--9--10-------------12--10--10--9--5--4--5-----------5-----5--4--5-----------5-----------
G|-----9-----9-------------------11--11------9---------------------6-----------------------6--------------
D|--9------------------------11------9-------9------------------6--------6--------------6-----------------
A|------------------------9----------------------------------4--------------------------------------------
E|-----------------------------------11------0---------------------------------------6--------------------

Stave 8:

E|--------2--2-----------4--------2--2--------2---------------------------------------------------------
B|-----------------5--------------------2--5-----9-----------9-----9--7--9-----------9--9--10--7--------
G|-----2--------2--------------2--------------------------9-----------------------9---------------------
D|-----------------------------------------------------9--------9--------------9---------------------9--
A|--0--------0--------0--0--0--------0------------------------------------------------------------------
E|--------------------------------------------------7-----------------------7---------------------7-----

Stave 9:

E|--------------------------------------0-----------------0-----0-----------2--0--0--------------0--
B|-----7-----7-----7-----------7--9--7--------------2--------4-----------------------------------0--
G|--9-----------9-----------9--------------------2-----------------------2--2-----------------1--1--
D|-----------------------9--------------------2-----------------------2--------------------2-----2--
A|-----------------------------------------0-----------0-----------0--------------------2--------2--
E|--------7-----------7--------7-----------------------------------------------------0-----------0--

Stave 10:

E|-----4--2--0-----0-----0-----------2--0--0--0-----------------2--4--5--------5--4--------4--4--
B|--0-----------------4--------------------0--0--------------0-----------------------------------
G|--------------------------------2--2-----1--1-----------1-----------------2--------2--2--------
D|-----------------------------2-----------2--2--------2-----------------4--------2-----------1--
A|--------------0-----------0--------------2--2-----2--------------------------------------------
E|-----------------------------------------0--0--0-----------------------------------------------

Stave 11:

E|-----------2--0-----------------------------------------------------------------------------4--
B|--------1--------------2--3--------3--2--2-----------4-----------------4-----------------4--4--
G|-----1--------------1-----------------2-----6-----6-----5--6--6-----6-----5--6--6-----6-----5--
D|--1-----------------------------0-----2--------6-----------------6-----------------6-----------
A|-----------------3--------------------0--------------------------------------------------------
E|-----------------------------2--------0-----4-----------4-----4-----------4-----4-----------4--

http://www.guitartabcreator.com
Guitar Tab Creator is intended to store guitar tab created through the tool. It currently does not support in-line text editing. Any text you place in here will be lost. If you need to comment on your tab, please use the "Tab Notes" section located below.