Sound will begin in 5 seconds

Ride bass line for guitar solo

01234567891011121314151617181920212223
E
B
G
D
A
E
B
0 1 2 3 4 5 6 7 8 9 10 11 12 13 14 15 16 17 18 19 20 21 22 23
(/) Slide Up  (\) Slide Down  (h) Hammer On  (p) Pull Off  (b) Bend (r) Release (v) Vibrato

Part 1:

E|----------------------------------
B|----------------------------------
G|----------------------------------
D|----------------------------------
A|--5--4--2--4--2-----5--4--2--5/7--
E|----------------------------------

Part 2: (A-D)

E|-----------------------------------------------------
B|-----------------------------------------------------
G|-----------------------------------------------------
D|-----------------------------------------------------
A|--------------------------5--5--5--5--5--5--5--5--5--
E|--5--5--5--5--5--5--5--5-----------------------------

Tapping part 1 (tremolo picking)

E|--------------
B|--------------
G|--------------
D|--------------
A|--4--5--7--5--
E|--------------

Tapping part 2 (Quick note changes)

E|--------------
B|--------------
G|--------------
D|--------------
A|--4--5--7--5--
E|--------------

Bending part

E|----------------------------
B|----------------------------
G|----------------------------
D|----------------------------
A|--5--5--7--7--9--9--11--11--
E|----------------------------

Last really fast part before final chorus

E|---------------------------------------------------------------------------------------------------------------------
B|---------------------------------------------------------------------------------------------------------------------
G|---------------------------------------------------------------------------------------------------------------------
D|---------------------------------------------------------------------------------------------------------------------
A|---------------------------------------------------------------------------------------------------------------------
E|--6--6--6--6--7--7--7--7--8--8--8--8--9--9--9--9--10--10--11--11--12--12--13--13--15--15--15--15--15--15--15--15--15\

http://www.guitartabcreator.com
Guitar Tab Creator is intended to store guitar tab created through the tool. It currently does not support in-line text editing. Any text you place in here will be lost. If you need to comment on your tab, please use the "Tab Notes" section located below.