Sound will begin in 5 seconds

Save Your Love

01234567891011121314151617181920212223
E
B
G
D
A
E
B
0 1 2 3 4 5 6 7 8 9 10 11 12 13 14 15 16 17 18 19 20 21 22 23
Song Science #1: How Pros Use 6 Chords to Write Hit Songs
(/) Slide Up  (\) Slide Down  (h) Hammer On  (p) Pull Off  (b) Bend (r) Release (v) Vibrato

Stave 1:

E|-----------------|-----------------|-----------------|-----------------
B|-----------------|-----------------|-----------------|-----------------
G|---------0-------|---------0-------|---------0-------|---------0-------
D|-----4-------4---|-----4-------4---|-----4-------4---|-----4-------4---
A|---2---2---2---2-|---2---2---2---2-|---2---2---2---2-|---2---2---2---2-
E|-0---------------|-0---------------|-0---------------|-0---------------

Stave 2:

E|---------0-------|---------0-------|---------0-------|-----------------
B|-----------0-----|-----------3-----|-----------0-----|-----------------
G|-----0-------0---|-----0-------0---|-----2-------2---|-----0-------2---
D|---2---2-------2-|---2---2-------0-|---0---0-------0-|---0---0---2---2-
A|-----------------|-3---------------|-----------------|---------0-------
E|-0---------------|-----------------|-2---------------|-3---------------

Stave 3:

E|-----------------|-----------------|---------0-------|-----------------
B|-----------------|-----------------|-------0---0-----|-------0-------0-
G|---------0-------|---------0-------|-----0-------0---|-----0-------0---
D|-----4-------4---|-----4-------4---|---9-----------9-|---9-------9-----
A|---2---2---2---2-|---2---2---2---2/|-7---------------|-6-------7-------
E|-0---------------|-0---------------|-----------------|-----------------

Stave 4:

E|---------0-------|-----------------|---------0-------|---------0-------
B|-----------0-----|-----------------|-----------0-----|-----------0-----
G|-----0-------0---|-----0-----------|-----2-------2---|-----2-------2---
D|---2---2-------2-|---2---2---------|---2---2-------2-|---2---2-------2-
A|-3---------------|-3-------2-3-2---|-0---------------|-0---------------
E|-----------------|---------------3-|-----------------|-----------------

Stave 5:

E|---------0-------|-----------------|---------0-------|-----------------
B|-----------0-----|-----------------|-------0---0-----|-------0-------0-
G|-----0-------0---|-----------------|-----0-------0---|-----0-------0---
D|---4---4-------4-|-----------------|---9-----------9-|---9-------9-----
A|-2---------------|-2-----------2--/|-7---------------|-6-------7-------
E|-----------------|-----------------|-----------------|-----------------

Stave 6:

E|---------0-------|-----------------|---------0-------|---------0-------
B|-----------0-----|-----------------|-----------0-----|-----------0-----
G|-----0-------0---|-----0-----------|-----2-------2---|-----2-------2---
D|---2---2-------2-|---2---2---------|---2---2-------2-|---2---2-------2-
A|-3---------------|-3-------2-3-2---|-0---------------|-0---------------
E|-----------------|---------------3-|-----------------|-----------------

Stave 7:

E|---------0-------|-----------------|---------0-------|---------0-------
B|-----------0-----|-----------------|-----------0-----|-----------0-----
G|-----0-------0---|-----------------|-----2-------2---|-----0-------0---
D|---4---4-------4-|-----------------|---2---2-------2-|---4---4-------4-
A|-2---------------|-2---------------|-0---------------|-2---------------
E|-----------------|---------------3-|-----------------|-----------------

Stave 8:

E|---------0-------|---------0-------|---------0-------|---------0-------
B|-----0-----0---0-|-----0-----0-----|-----------0-----|-----------0-----
G|---0---0-----0---|---0---0-----0---|-----2-------2---|-----0-------0---
D|-2---------------|-0-------------0-|---2---2-------2-|---4---4-------4-
A|-----------------|-----------------|-0---------------|-2---------------
E|-----------------|-----------------|-----------------|-----------------

Stave 9:

E|-----------------|---------0-------|---------0-------|-----------------
B|-----0-------0---|-----0-----0---0-|-----0-----0-----|-----------------
G|---0---0---0---0-|---0---0-----0---|---0---0-----0---|-----------------
D|-2-------0-------|-----------------|---------------5-|-----------------
A|-----------------|-4---------------|-3---------------|-3---------------
E|-----------------|-----------------|-----------------|-----------------

Stave 10:

E|---------0-------|---------0-------|---------0-------|-----------------
B|-----------0-----|-----------3-----|-----------0-----|-----------------
G|-----0-------0---|-----0-------0---|-----2-------2---|-----0-----0-----
D|---2---2-------2-|---2---2-------0-|---0---0-------0-|---0-----0-------
A|-----------------|-3---------------|-----------------|-----------------
E|-0---------------|-----------------|-2---------------|-3-----3-----2-3-

Stave 11:

E|---------0-------|---------0-------|---------0-------|-----------------
B|-----------0-----|-----------3-----|-----------0-----|-----------------
G|-----0-------0---|-----0-------0---|-----2-------2---|-----0-------2---
D|---2---2-------2-|---2---2-------0-|---0---0-------0-|---0---0---2---2-
A|-----------------|-3---------------|-----------------|---------0-------
E|-0---------------|-----------------|-2---------------|-3---------------

Stave 12:

E|-----------------|-----------------|---------0-------|-----------------
B|-----------------|-----------------|-------0---0-----|-------0-------0-
G|---------0-------|---------0-------|-----0-------0---|-----0-------0---
D|-----4-------4---|-----4-------4---|---9-----------9-|---9-------9-----
A|---2---2---2---2-|---2---2---2---2/|-7---------------|-6-------7-------
E|-0---------------|-0---------------|-----------------|-----------------

Stave 13:

E|---------0-------|-----------------|---------0-------|---------0-------
B|-----------0-----|-----------------|-----------0-----|-----------0-----
G|-----0-------0---|-----0-----------|-----2-------2---|-----2-------2---
D|---2---2-------2-|---2---2---------|---2---2-------2-|---2---2-------2-
A|-3---------------|-3-------2-3-2---|-0---------------|-0---------------
E|-----------------|---------------3-|-----------------|-----------------

Stave 14:

E|---------0-------|---------0-------|---------0-------|---------0-------
B|-----------0-----|-----------0-----|-----------0-----|-----------0-----
G|-----0-------0---|-----0-------0---|-----2-------2---|-----0-------0---
D|---4---4-------4-|---4---4-------4-|---2---2-------2-|---4---4-------4-
A|-2---------------|-2---------------|-0---------------|-2---------------
E|-----------------|-----------------|-----------------|-----------------

Stave 15:

E|---------0-------|---------0-------|---------0-------|---------0-------
B|-----0-----0---0-|-----0-----0-----|-----------0-----|-----------0-----
G|---0---0-----0---|---0---0-----0---|-----2-------2---|-----0-------0---
D|-2---------------|-0-------------0-|---2---2-------2-|---4---4-------4-
A|-----------------|-----------------|-0---------------|-2---------------
E|-----------------|-----------------|-----------------|-----------------

Stave 16:

E|-----------------|---------0-------|---------0-------|-----------------
B|-----0-------0---|-----0-----0---0-|-----0-----0-----|-----------------
G|---0---0---0---0-|---0---0-----0---|---0---0-----0---|-----------------
D|-2-------0-------|-----------------|---------------5-|-5-5-5-5-5-5-----
A|-----------------|-4---------------|-3---------------|-3-3-3-3-3-3-----
E|-----------------|-----------------|-----------------|-------------3-2-

Stave 17:

E|-0---------------|-0---------------|-
B|-0---------------|-1---------------|-
G|-0---------------|-0---------------|-
D|-1---------------|-2---------------|-
A|-1---------------|-3---------------|-
E|-0---------------|-----------------|-

http://www.guitartabcreator.com
Guitar Tab Creator is intended to store guitar tab created through the tool. It currently does not support in-line text editing. Any text you place in here will be lost. If you need to comment on your tab, please use the "Tab Notes" section located below.