Sound will begin in 5 seconds

Yo - SuiTie

01234567891011121314151617181920212223
E
B
G
D
A
E
B
0 1 2 3 4 5 6 7 8 9 10 11 12 13 14 15 16 17 18 19 20 21 22 23
Song Science #1: How Pros Use 6 Chords to Write Hit Songs
(/) Slide Up  (\) Slide Down  (h) Hammer On  (p) Pull Off  (b) Bend (r) Release (v) Vibrato

Stave 1:

E|----5----2----2----
B|----7----3----2----
G|----6----2----2----
D|----7----4----4----
A|----5----2----4----
E|----5----2----2----

Stave 2:

E|----5----7----2----5----5----5----7----
B|----5----7----3----5----5----5----7----
G|----6----9----4----7----6----7----9----
D|----7----9----4----7----7----7----9----
A|----7----7----2----5----7----5----7----
E|----5----7----2----5----5----5----7----

Stave 3:

E|----x--------5----
B|----3--------7----
G|----4--------6----
D|----4--------7----
A|----x--------5----
E|----3--------5----

Stave 4:

E|----x----x----x----x----
B|----6----5----3----3----
G|----7----5----3----3----
D|----7----5----3----3----
A|----x----x----x----3----
E|----6----5----3----x----

http://www.guitartabcreator.com
Guitar Tab Creator is intended to store guitar tab created through the tool. It currently does not support in-line text editing. Any text you place in here will be lost. If you need to comment on your tab, please use the "Tab Notes" section located below.