Sound will begin in 5 seconds

Love Never Felt So Good

01234567891011121314151617181920212223
E
B
G
D
A
E
B
0 1 2 3 4 5 6 7 8 9 10 11 12 13 14 15 16 17 18 19 20 21 22 23
Song Science #1: How Pros Use 6 Chords to Write Hit Songs
(/) Slide Up  (\) Slide Down  (h) Hammer On  (p) Pull Off  (b) Bend (r) Release (v) Vibrato

Stave 1:

E|---x---x---8----x---x---x---x---------x---x---x---x---x---x---
B|---3---3---10---4---4---3---3---------4---4---6---5---3---3---
G|---3---3---9----5---5---3---3---------5---5---7---5---3---3---
D|---3---3---10---5---4---3---3---------5---4---7---5---3---3---
A|---x---3---8----x---x---x---3---------x---x---x---x---x---3---
E|---3---x---8----4---5---3---x---------4---5---6---5---3---x---

Stave 2:

E|---x---x---8----x---x---x---
B|---3---3---10---5---3---3---
G|---3---3---9----5---3---3---
D|---3---3---10---5---3---3---
A|---x---3---8----x---x---3---
E|---3---x---8----5---3---x---

http://www.guitartabcreator.com
Guitar Tab Creator is intended to store guitar tab created through the tool. It currently does not support in-line text editing. Any text you place in here will be lost. If you need to comment on your tab, please use the "Tab Notes" section located below.