Sound will begin in 5 seconds

Coooooo

01234567891011121314151617181920212223
E
B
G
D
A
E
B
0 1 2 3 4 5 6 7 8 9 10 11 12 13 14 15 16 17 18 19 20 21 22 23
Song Science #1: How Pros Use 6 Chords to Write Hit Songs
(/) Slide Up  (\) Slide Down  (h) Hammer On  (p) Pull Off  (b) Bend (r) Release (v) Vibrato

Stave 1:

E|--------------------------------------------------------
B|--------------------------------------------------------
G|-----------3-----3--7--7p5--9-----9---------------------
D|--------------5----------------7-----12------12---------
A|--5--7--5----------------------------------------17p15--
E|-----------------------------------------10-------------

Stave 2:

E|-------------------------------------------------
B|-------------------------------------------------
G|--9p7--------------------------------------------
D|-------9p7---------------------------------------
A|------------12p10------15--15h17-------------17--
E|-------------------12-------------15--15h17------

Stave 3:

E|------------------------------------------------------
B|------------------------------------------------------
G|------------------------------------------------------
D|----------------------------------9--9h12-------------
A|--17p15--------------9--5--5---------------12--9------
E|---------12h15--5h7-----------12------------------7h9\

http://www.guitartabcreator.com
Guitar Tab Creator is intended to store guitar tab created through the tool. It currently does not support in-line text editing. Any text you place in here will be lost. If you need to comment on your tab, please use the "Tab Notes" section located below.