Sound will begin in 5 seconds

02 theme

01234567891011121314151617181920212223
E
B
G
D
A
E
B
0 1 2 3 4 5 6 7 8 9 10 11 12 13 14 15 16 17 18 19 20 21 22 23
Song Science #1: How Pros Use 6 Chords to Write Hit Songs
(/) Slide Up  (\) Slide Down  (h) Hammer On  (p) Pull Off  (b) Bend (r) Release (v) Vibrato

Stave 1:

D|---------------------------
A|-----10--7-----------------
F|------------7--9--6--------
C|--9------------------7--9--
G|---------------------------
C|---------------------------

Stave 2:

D|------------------------------------------
A|--8--7--12--14--15--17--14--17b19--17b19--
F|------------------------------------------
C|------------------------------------------
G|------------------------------------------
C|------------------------------------------

Stave 3:

D|-----------------------------------------
A|--17b19--15--17--14----------14--15------
F|---------------------14--16--------------
C|-------------------------------------16--
G|-----------------------------------------
C|-----------------------------------------

Stave 4:

D|------------------------------------------
A|------14--15------------------------------
F|--16--------------------------15--16--18--
C|--------------14--16--14--16--------------
G|------------------------------------------
C|------------------------------------------

Stave 5:

D|------------------------------------------
A|--15------17--15--14------17--15--14------
F|------16--------------16--------------14--
C|------------------------------------------
G|------------------------------------------
C|------------------------------------------

Stave 6:

D|----------------------------------
A|----------------------------------
F|--16--14--16----------------------
C|--------------16--14--16----------
G|--------------------------17--14--
C|----------------------------------

Stave 7:

D|--------------------------------
A|--------------------------------
F|--------------------------------
C|--14--12------------------------
G|----------16--14--12--14--9--7--
C|--------------------------------

Stave 8:

D|--------------------------------------
A|--------------------------------------
F|--------------4--2--4-----6--4--6-----
C|--4--2--4--------------4-----------7--
G|-----------5--------------------------
C|--------------------------------------

Stave 9:

D|--------------------------------------
A|--------------5--3--5-----7--5--7-----
F|--7--6--7--------------4-----------7--
C|-----------9--------------------------
G|--------------------------------------
C|--------------------------------------

Stave 10:

D|--------------------------------------
A|--8--7--8-----12------12--14--15--12--
F|-----------9------11------------------
C|--------------------------------------
G|--------------------------------------
C|--------------------------------------

http://www.guitartabcreator.com
Guitar Tab Creator is intended to store guitar tab created through the tool. It currently does not support in-line text editing. Any text you place in here will be lost. If you need to comment on your tab, please use the "Tab Notes" section located below.