Sound will begin in 5 seconds

comfortably numb

01234567891011121314151617181920212223
E
B
G
D
A
E
B
0 1 2 3 4 5 6 7 8 9 10 11 12 13 14 15 16 17 18 19 20 21 22 23
Song Science #1: How Pros Use 6 Chords to Write Hit Songs
(/) Slide Up  (\) Slide Down  (h) Hammer On  (p) Pull Off  (b) Bend (r) Release (v) Vibrato

Stave 1:

E|-------------------------------------|-------------|--
B|-------------------------------------|-------------|--
G|--7--9--9b11--9b11r9--9p7-----9--9v--|--7-----7b8--|--
D|---------------------------9---------|-----9-------|--
A|-------------------------------------|-------------|--
E|-------------------------------------|-------------|--

Stave 2:

E|----------------------------------------10b11-------------------------|--
B|--------10------10v--12--12b14--10--12--------------------------------|--
G|--0/11------11---------------------------------7--9--9b11r9--9p7--9v--|--
D|----------------------------------------------------------------------|--
A|----------------------------------------------------------------------|--
E|----------------------------------------------------------------------|--

Stave 3:

E|----------------------------------------------------|--
B|--10p7-----7----------------------------------------|--
G|--------9-----9p7---------------------7b8-----------|--
D|-------------------9v-------7--7v--9-------9p7--9v--|--
A|-----------------------0/9--------------------------|--
E|----------------------------------------------------|--

Stave 4:

E|-----7--9--9b11------7---------|--
B|--7--------------10-----10b12--|--
G|-------------------------------|--
D|-------------------------------|--
A|-------------------------------|--
E|-------------------------------|--

Stave 5:

E|--------------------7-----------------------------------------------------------|--
B|--10p7-----------7-----10p7-----------------------------------------------------|--
G|--------9--9b11--------------9--9b11r9--9p7-----9--7b8--------------------------|--
D|---------------------------------------------9----------9p7---------------------|--
A|-------------------------------------------------------------9--8--7--5-----5v--|--
E|-------------------------------------------------------------------------7------|--

Stave 6:

E|------------------7--------------------------------------|-----------|--
B|---------------------10p7--------------------------------|-----------|--
G|--7--7--7v--9b11-----------9--9b11r9--7-----9--7b8-------|-----------|--
D|-----------------------------------------9----------9p7--|-----------|--
A|---------------------------------------------------------|--9--7--5--|--
E|---------------------------------------------------------|-----------|--

Stave 7:

E|-----------------------------------------------------7------------------------|--
B|--------------------------------------------------------10--------7-----------|--
G|------------------------------------7b8-----7--9b11---------9b11-----7--9--0--|--
D|---------------------7--7--7v--9p7-------9------------------------------------|--
A|--7p5-----5--7--7/9-----------------------------------------------------------|--
E|-------7----------------------------------------------------------------------|--

Stave 8:

E|-----------7-------------------------------------------------------------|--
B|--------7-----10p7-------------------------------------------------------|--
G|--9b11--------------9--9b11r9--9p7-----9--7b8----------------------------|--
D|------------------------------------9----------9p7-----------------------|--
A|----------------------------------------------------9--8--7--5-----5-----|--
E|----------------------------------------------------------------7-----5--|--

Stave 9:

E|----------------------------------------------|-----------7----------------|--
B|--7--------7--7-----7-----7-------------------|--------------10--7--10b12--|--
G|--7--------7--7-----7-----7--9b11--9p7-----7--|--9--9b11-------------------|--
D|-----9--9--------9-----9----------------9-----|----------------------------|--
A|----------------------------------------------|----------------------------|--
E|----------------------------------------------|----------------------------|--

Stave 10:

E|-----------7----------------------------------------------------------------
B|--------7-----10p7----------------------------------------------------------
G|--9b11--------------9--9b11r9--7--9p7-----7---------------------------------
D|---------------------------------------9-----9p7--9p7-----7-----------------
A|-------------------------------------------------------9-----9--8--7--5-----
E|-------------------------------------------------------------------------7--

Stave 11:

E|------------------7------------------------------------|-----------
B|---------------------10p7------------------------------|-----------
G|--7--7--7v--9b11-----------9--9b11--7-----9--7b8-------|-----------
D|---------------------------------------9----------9p7--|-----------
A|-------------------------------------------------------|--9--7--5--
E|-------------------------------------------------------|-----------

Stave 12:

E|-----------------------------------------------------7------------------------|--
B|--------------------------------------------------------10--------7-----------|--
G|------------------------------------7b8-----7--9b11---------9b11-----7--9--0--|--
D|---------------------7--7--7v--9p7-------9------------------------------------|--
A|--7p5-----5--7--7/9-----------------------------------------------------------|--
E|-------7----------------------------------------------------------------------|--

Stave 13:

E|-----------7-------------------------------------------------------------
B|--------7-----10p7-------------------------------------------------------
G|--9b11--------------9--9b11r9--9p7-----9--7b8--9p7-----------------------
D|------------------------------------9------------------------------------
A|----------------------------------------------------9--8--7--5-----5-----
E|----------------------------------------------------------------7-----5--

http://www.guitartabcreator.com
Guitar Tab Creator is intended to store guitar tab created through the tool. It currently does not support in-line text editing. Any text you place in here will be lost. If you need to comment on your tab, please use the "Tab Notes" section located below.